» » »

Everyone Knows Im From Lindenhurst Tabs (ver.1)

Artists:  A B C D E F G H I J K L M N O P Q R S T U V W X Y Z # 

Everyone Knows Im From Lindenhurst Tabs (ver.1)

Ednas Goldfish
Rating:
0/5 (0 votes)

Hard to play? Try these video lessons and learn fast.
                EVERYONE KNOWS I'M FROM LINDENHURST - Edna's Goldfish 

Intro/Chorus 
e|---------------------------------------------------------------------------| 
B|---------------------------------------------------------------------------| 
G|-9---6---------------------------------------------------------------------| 
D|-9-6-6-9-------------------------------------------------------------------| 
A|-7-6-4-9-------------------------------------------------------------------| 
E|---4---7-------------------------------------------------------------------| 

Verse 
e|---------------------------------------------------------------------------| 
B|---------------------------------------------------------------------------| 
G|-9-6-----------------------------------------------------------------------| 
D|-9-6-----------------------------------------------------------------------| 
A|-7-4-----------------------------------------------------------------------| 
E|---------------------------------------------------------------------------| 

Pre-Chorus 
e|---------------------------------------------------------------------------| 
B|---------------------------------------------------------------------------| 
G|---9-----------------------------------------------------------------------| 
D|-7-9-9-11------------------------------------------------------------------| 
A|-7-7-9-11------------------------------------------------------------------| 
E|-5---7-9-------------------------------------------------------------------| 

Bridge 
e|---------------------------------------------------------------------------| 
B|---------------------------------------------------------------------------| 
G|---------------------------------------------------------------------------| 
D|-9-7-----------------------------------------------------------------------| 
A|-9-7-----------------------------------------------------------------------| 
E|-7-5-----------------------------------------------------------------------| 
            
Hard to play? Try these video lessons and learn fast. | Correct




comments powered by Disqus
↑ Back to top | Tablatures and chords are parodies/interpretations of the original songs. You may use it for private study, scholarship, research or language learning purposes only