» » »

Ednas Goldfish, Eventually, Anyway Tabs (ver.1)

Artists:  A B C D E F G H I J K L M N O P Q R S T U V W X Y Z # 

Eventually, Anyway Tabs (ver.1)

Ednas Goldfish Tabs
Rating:
0/5 (0 votes)
Eventually, Anyway lessons Tabs too difficult? Try these video lessons and learn fast
                -------------------------------------------------------------------------------
                             EVENTUALLY ANYWAY - Edna's Goldfish
-------------------------------------------------------------------------------

Tuning:Standard - E A D G B e

hey, noticed that thee weren't any versions of this song on the site,
and i can't understand why!
you just need to be able to play a few barre chords and it's easy!



Intro:

   D                 G         A
e|-5-5-5-5-5-5-5-5---3-3-3-3---5-5-5-5--|
B|-7-7-7-7-7-7-7-7---3-3-3-3---5-5-5-5--|
G|-7-7-7-7-7-7-7-7---4-4-4-4---6-6-6-6--|
D|-7-7-7-7-7-7-7-7---5-5-5-5---7-7-7-7--|
A|-5-5-5-5-5-5-5-5---5-5-5-5---7-7-7-7--|
E|-------------------3-3-3-3---5-5-5-5--|
PM......................................  x4



Verse:
(ska rhythm)

   D             G          A
e|-5-5-x-5-x-5---3-x-3-x----5-x-5-x--|
B|-7-7-x-7-x-7---3-x-3-x----5-x-5-x--|
G|-7-7-x-7-x-7---4-x-4-x----6-x-6-x--|
D|-7-7-x-7-x-7---5-x-5-x----7-x-7-x--|
A|-5-5-x-5-x-5---5-x-5-x----7-x-7-x--|
E|---------------3-x-3-x----5-x-5-x--|

I don't know exactly how many times the verse goes round for,
but if you play along with the song i'm sure you'll get it quick enough.




Chorus:
(Distortion)

e|-------------------------|
B|-------------------------|
G|-------------------------|
D|-4-----------------------|
A|-2--5--7-----------------|
E|----3--5-----------------|

Listen to the song to get the rhythm for this part


Outro:

at the end play the chorus in barre chord form.
this is how each of the barre chords are for played for the chorus.
  Bm    G    A
e|-2----3----5--|
B|-3----3----5--|
G|-4----4----6--|
D|-4----5----6--|
A|-2----5----7--|
E|------3----5--|


End on a D Major Barre chord, like this:

e|-5---|
B|-7---|
G|-7---|
D|-7---|
A|-5---|
E|-----|


thanks, Jake
            
Submit corrections

comments powered by Disqus
↑ Back to top | Ednas Goldfish Tabs for Eventually, Anyway. Lyrics for acoustic guitar and electric guitar. Tablatures and chords are parodies/interpretations of the original songs. You may use it for private study, scholarship, research or language learning purposes only