» » »

Better Days Tabs (ver.1)

Artists:  A B C D E F G H I J K L M N O P Q R S T U V W X Y Z # 

Better Days Tabs (ver.1)

Ednas Goldfish
Rating:
0/5 (0 votes)

Hard to play? Try these video lessons and learn fast.
                BETTER DAYS - Edna's Goldfish 

Intro: 
e|---5 or 7-------5-------7-------3------------------------------------------| 
B|---7------------5-------7-------3------------------------------------------| 
G|---7------------6-------8-------4------------------------------------------| 
D|---7------------7-------9-------5------------------------------------------| 
A|---5------------7-------9-------5------------------------------------------| 
E|----------------5-------7-------3------------------------------------------| 

Verse: 
e|---5 or 7----5-----3----5--------------------------------------------------| 
B|---7---------5-----3----5--------------------------------------------------| 
G|---7---------6-----4----6--------------------------------------------------| 
D|---7---------7-----5----7--------------------------------------------------| 
A|---5---------7-----5----7--------------------------------------------------| 
E|-------------5-----3----5--------------------------------------------------| 

Pre-Chorus: 
e|---5---5-------------------------------------------------------------------| 
B|---7---5-------------------------------------------------------------------| 
G|---7---4-------------------------------------------------------------------| 
D|---7---5-------------------------------------------------------------------| 
A|---5---5-------------------------------------------------------------------| 
E|-------3-------------------------------------------------------------------| 

Chorus is the same as the intro but without the chorus effect 
            
Hard to play? Try these video lessons and learn fast. | Correct




comments powered by Disqus
↑ Back to top | Tablatures and chords are parodies/interpretations of the original songs. You may use it for private study, scholarship, research or language learning purposes only