» » »

1800 Miles To Nowhere Tabs (ver.1)

Artists:  A B C D E F G H I J K L M N O P Q R S T U V W X Y Z # 

1800 Miles To Nowhere Tabs (ver.1)

Ednas Goldfish
Rating:
0/5 (0 votes)

Hard to play? Try these video lessons and learn fast.
                1800 MILES TO NOWHERE - Edna's Goldfish 

Intro/Chorus: 
e|---------------------------------------------------------------------------| 
B|---------------------------------------------------------------------------| 
G|---------------------------------------------------------------------------| 
D|----------2-4-6-7----------------------------------------------------------| 
A|----------2-4-6-7-or-------------------------------------------------------| 
E|-5-4-2-0--0-2-4-5----5-4-2-0-----------------------------------------------| 

Verse: 
e|---------------------------------------------------------------------------| 
B|---------------------------------------------------------------------------| 
G|-9-------------------------------------------------------------------------| 
D|-9-7-----------------------------------------------------------------------| 
A|-7-7-----------------------------------------------------------------------| 
E|---5-----------------------------------------------------------------------| 

Bridge: 
e|---------------------------------------------------------------------------| 
B|----10-----10----10-----10-------------------------------------------------| 
G|--------11-----------------------------------------------------------------| 
D|-11-----11-----9------2------7-9-------------------------------------------| 
A|-9------9------7------2------7-9-------------------------------------------| 
E|----------------------0------5-7-------------------------------------------| 
            
Hard to play? Try these video lessons and learn fast. | Correct




comments powered by Disqus
↑ Back to top | Tablatures and chords are parodies/interpretations of the original songs. You may use it for private study, scholarship, research or language learning purposes only