>
 >
Sabre Dance

Sabre Dance Guitar Tabs

Edmunds Dave - Sabre Dance chords, tabs, tablatures, lyrics

Guitar lessons | Add/correct | Request | Top 50 tabs Artists:  A B C D E F G H I J K L M N O P Q R S T U V W X Y Z 0-9

Sabre Dance Guitar Tabs – Edmunds Dave

CD, Sheet music, Poster

Do you like Sabre Dance? Share with your friends now
Tabs
Gtr I (E A D G B E) - 'Dave Edmunds w/dist'
Gtr II (E A D G B E) - 'Gtr 1 w/reverb'

Intro
  Q=198
 4/4
  Gtr I
  Wx2          W          W          E E E E E E E E   E E E E E E E E
|------------|----------|----------|-----------------|------------------|
|------------|-3--------|-3--------|-3-------3-------|-3-------3--------|
|------------|-0--------|-0--------|-0-------0-------|-0-------0--------|
|------------|-0--------|-0--------|-0-0-0-0-0-0-0-0-|-0-0-0-0-0-0-0-0--|
|------------|-x--------|-x--------|---x-x-x---x-x-x-|---x-x-x---x-x-x--|
|------------|-3--------|-3--------|---3-3-3---3-3-3-|---3-3-3---3-3-3--|


  PM------------------------------|
  E E E E E E E E   E E E E E E E E   E E E E E E E E    E  E E E E E E E
|-----------------|-----------------|---7-7-7-7-7-7-7-|--7--7-7-7-7-7-7-7-||
|-----------------|-----------------|---7-7-7-7-7-7-7-|--7--7-7-7-7-7-7-7-||
|-----------------|-----------------|-0---------------|-(0)---------------||
|---0---0---0---0-|---0---0---0---0-|-----------------|-------------------||
|-----------------|-----------------|-----------------|-------------------||
|-3---3---3---3---|-3---3---3---3---|-----------------|-------------------||
                                      W                 +H.           Q


                                                                 Gtr II
  E E E E E E E E   E E E E E E E E   E E E E E E E E   Q  E E Q  E E
|-5S7-7-7-5S7-7-7-|-5S7-7-7-5S7-7-7-|-7-6-6-5-5-4-4-3-|-3--6s5-3------|
|-5S7-7-7-5S7-7-7-|-5S7-7-7-5S7-7-7-|-7-6-6-5-5-4-4-3-|-3--6s5-3------|
|-----------------|-----------------|-----------------|---------------|
|-----------------|-----------------|-----------------|-----------8s7-|
|-----------------|-----------------|-----------------|-----------8s7-|
|-----------------|-----------------|-----------------|---------------|


    Gtr I  Gtr II   Gtr I
  Q  E E Q  E E   E E E E E E E E   E E E E E E E E   E E E E E E E E
|----6s5-3------|---7-7-7-7-7-7-7-|-7-7-7-7-7-7-7-7-|-5S7-7-7-5S7-7-7-|
|----6s5-3------|---7-7-7-7-7-7-7-|-7-7-7-7-7-7-7-7-|-5S7-7-7-5S7-7-7-|
|---------------|-----------------|-----------------|-----------------|
|-5---------8s7-|-5---------------|-----------------|-----------------|
|-5---------8s7-|-5---------------|-----------------|-----------------|
|---------------|-----------------|-----------------|-----------------|


                                               Gtr II   Gtr I  Gtr II
  E E E E E E E E   E E E E E E E E   Q  E E Q  E E   Q  E E Q   Q
|-5S7-7-7-5S7-7-7-|-7-6-6-5-5-4-4-3-|-3--6s5-3------|----6s5-3--------||
|-5S7-7-7-5S7-7-7-|-7-6-6-5-5-4-4-3-|-3--6s5-3------|----6s5-3--------||
|-----------------|-----------------|---------------|-----------(7)\--||
|-----------------|-----------------|-----------8s7-|-5---------(7)\--||
|-----------------|-----------------|-----------8s7-|-5---------------||
|-----------------|-----------------|---------------|-----------------||


  Gtr I                           Gtr
  PM------------------------------|
  E E E E E E E E   E E E E E E E E
|-----------------|-----------------|
|-----------------|-----------------|
|-----------------|---------------3-|
|---3---3---3---3-|---3---3---3---3-|
|-1---1---1---1---|-1---1---1---1---|
|-----------------|-----------------|


  Gtr I
  E  E  E  E  E  E  E  E    E  E  E  E  E  E  E  E
|---10-10-10-10-10-10-10-|-10-10-10-10-10-10-10-10--|
|---10-10-10-10-10-10-10-|-10-10-10-10-10-10-10-10--|
|------------------------|--------------------------|
|------------------------|--------------------------|
|------------------------|--------------------------|
|------------------------|--------------------------|


  E  E  E  E E  E  E  E   E  E  E  E E  E  E  E
|-8S10-10-10-8S10-10-10-|-8S10-10-10-8S10-10-10-|
|-8S10-10-10-8S10-10-10-|-8S10-10-10-8S10-10-10-|
|-----------------------|-----------------------|
|-----------------------|-----------------------|
|-----------------------|-----------------------|
|-----------------------|-----------------------|


                              Gtr II
   E E E E E E E E   Q  E E Q   E  E
|-10-9-9-8-8-7-7-6-|-6--9s8-6---------|
|-10-9-9-8-8-7-7-6-|-6--9s8-6---------|
|------------------|------------------|
|------------------|-----------11s10--|
|------------------|-----------11s10--|
|------------------|------------------|


    Gtr I  Gtr II     Gtr I
  Q  E E Q   E  E   E   E  E  E  E  E  E  E
|----9s8-6--------|----10-10-10-10-10-10-10-|
|----9s8-6--------|----10-10-10-10-10-10-10-|
|-----------------|-------------------------|
|-8---------11s10-|-8-----------------------|
|-8---------11s10-|-8-----------------------|
|-----------------|-------------------------|


   E  E  E  E  E  E  E  E   E  E  E  E E  E  E  E
|-10-10-10-10-10-10-10-10-|-8S10-10-10-8S10-10-10-|
|-10-10-10-10-10-10-10-10-|-8S10-10-10-8S10-10-10-|
|-------------------------|-----------------------|
|-------------------------|-----------------------|
|-------------------------|-----------------------|
|-------------------------|-----------------------|


                                                      Gtr II    Gtr I  Gtr II
  E  E  E  E E  E  E  E    E E E E E E E E   Q  E E Q   Q     Q  E E Q  Q
|-8S10-10-10-8S10-10-10-|-10-9-9-8-8-7-7-6-|-6--9s8-6-------|----9s8-6-------|
|-8S10-10-10-8S10-10-10-|-10-9-9-8-8-7-7-6-|-6--9s8-6-------|----9s8-6-------|
|-----------------------|------------------|----------------|----------------|
|-----------------------|------------------|-----------12\--|-8---------8\---|
|-----------------------|------------------|-----------12\--|-8---------8\---|
|-----------------------|------------------|----------------|----------------|


    Gtr I
  Q  E E Q  Q     Q  E E Q   Q       Q  H.        +W           Q  Q  E E E E
|----6s5-3------|----6s5-3--(6)\--||------------|------------|---------------|
|----6s5-3------|----6s5-3--(6)\--||----3-------|-(3)--------|---------------|
|---------------|-----------------||----0-------|-(0)--------|---------------|
|-5---------8\--|-5---------------||-0--0-------|-(0)--------|---------0-----|
|-5---------8\--|-5---------------||------------|------------|---------------|
|---------------|-----------------||------------|------------|-3--3--3---3-3-|


                 Guitar Solo
                      ~                   ~                 ~
  E E Q  Q  Q     E.S Q  +Q   E E   E E E E +Q   E E   a q  Q  +Q   E E
|--------------||-----------------|------------------|------------------|
|--------------||-6p0-6--(6)--5-3-|-5-3---3-(3)--5-3-|-5s6--6--(6)--5-3-|
|-----0--------||-----------------|-----5------------|------------------|
|-----0--0-----||-----------------|------------------|------------------|
|-----x--------||-----------------|------------------|------------------|
|-3-3-3-----3--||-----------------|------------------|------------------|


        ~                    ~                ~
                                                       |-3-| |-3-| |-3-| |-3-|
  E E E E +Q   E E   E E E E Q  E E   E E E E Q  E E   E E E E E E E E E E E E
|------------------|----------------|----------------|-------------------------|
|-5-3--------------|-6-5-3---3--3-3-|-6-5-3---3--3-3-|-6p5p3-6p5p3-6p5p3-6p5p3-|
|-----5-4-(4)--4-4-|-------5--------|-------5--------|-------------------------|
|------------------|----------------|----------------|-------------------------|
|------------------|----------------|----------------|-------------------------|
|------------------|----------------|----------------|-------------------------|


                              ~~
  |-3-| |-3-| |-3-| |-3-|
  E E E E E E E E E E E E   a Q.   E +Q.   E
|-------------------------|------------------|
|-6p5p3-6p5p3-6p5p3-6p5p3-|-6s8----8-(8)---8S|
|-------------------------|------------------|
|-------------------------|------------------|
|-------------------------|------------------|
|-------------------------|------------------|


 Gtr II            Gtr I
   H.       Q     E Q  E +E  E E E
|---------------|-------------------|
|-20-------20\--|-------------------|
|---------------|---4---------------|
|---------------|------6-(6)-5-5-5--|
|---------------|-------------------|
|---------------|-------------------|


  +E  Q  E E Q  E   +E  Q  E E Q  E   +E  E E E E E E E   E E E E E E E E
|-----------------|-----------------|-------------------|-----------------|
|-----------------|-----------------|-------------------|-----------------|
|-----4-----------|-----4-----------|-----4-----4-----4-|-----4-----4-4-5-|
|-(5)----6-6-5--5-|-(5)----6-6-5--5-|-(5)---6-5---6-5---|-6-5---6-5-------|
|-----------------|-----------------|-------------------|-----------------|
|-----------------|-----------------|-------------------|-----------------|


                 Gtr II
                            ~~
  a q  Q  +E  Q  E    Q.    E  +H        W
|------------------|------------------||----------|
|------------------|------------------||----------|
|-5s7--7--(7)-7--7S|=19----19-(19)----||----------|
|------------------|------------------||----------|
|------------------|------------------||----------|
|------------------|------------------||----------|


       Gtr I
  H    Q  E S S   e  E  E  E  E  E  Q
|---------------|---10-10-10-10-10-10----|
|---------------|---10-10-10-10-10-10----|
|---------------|------------------------|
|-----------8-8-|-8----------------------|
|-----------8-8-|-8----------------------|
|---------------|------------------------|


   E  E  E  E  E  E  E  E   E  E  E  E E  E  E  E
|-10-10-10-10-10-10-10-10-|-8S10-10-10-8S10-10-10-|
|-10-10-10-10-10-10-10-10-|-8S10-10-10-8S10-10-10-|
|-------------------------|-----------------------|
|-------------------------|-----------------------|
|-------------------------|-----------------------|
|-------------------------|-----------------------|


  E  E  E  E E  E  E  E    E E E E E E E E
|-8S10-10-10-8S10-10-10-|-10-9-9-8-8-7-7-6--|
|-8S10-10-10-8S10-10-10-|-10-9-9-8-8-7-7-6--|
|-----------------------|-------------------|
|-----------------------|-------------------|
|-----------------------|-------------------|
|-----------------------|-------------------|


           Gtr II     Gtr I  Gtr II
  Q  E E Q   E  E   Q  E E Q   E  E
|-6--9s8-6--------|----9s8-6--------|
|-6--9s8-6--------|----9s8-6--------|
|-----------------|-----------------|
|-----------11s10-|-8---------11s10-|
|-----------11s10-|-8---------11s10-|
|-----------------|-----------------|


    Gtr I
  E  E  E  E  E  E  E  E    E E E E E E E E
|---10-10-10-10-10-10-10-|-10----------------|
|---10-10-10-10-10-10-10-|-10----------------|
|------------------------|----7-7-7-7-7-7-7--|
|-8----------------------|------7------------|
|-8----------------------|-------------------|
|------------------------|-------------------|


   E E E  E E E  E E    E E E  E E E  E E
|-10-----10-----10---|-10-----10-----10---|
|-10-----10-----10---|-10-----10-----10---|
|----7-7----7-7----7-|----7-7----7-7----7-|
|--------------------|--------------------|
|--------------------|--------------------|
|--------------------|--------------------|


                              Gtr II
   E E E E E E E E   Q  E E Q   E  E
|-10-9-9-8-8-7-7-6-|-6--9s8-6---------|
|-10-9-9-8-8-7-7-6-|-6--9s8-6---------|
|------------------|------------------|
|------------------|-----------11s10--|
|------------------|-----------11s10--|
|------------------|------------------|


    Gtr I  Gtr II    Gtr I  Gtr II   Gtr I
  Q  E E Q  Q      Q  E E Q  E E   Q  E E Q  Q      E E E E E E E E
|----9s8-6------||----6s5-3------|----6s5-3------||------------------|
|----9s8-6------||----6s5-3------|----6s5-3--5/--||-8-7-6-5-4-3-2-1--|
|---------------||---------------|---------------||------------------|
|-8---------8\--||-5---------8s7-|-5-------------||------------------|
|-8---------8\--||-5---------8s7-|-5-------------||------------------|
|---------------||---------------|---------------||------------------|


                                                Guitar Solo
  E E E E E E E E   Q  Q  Q  Q    Q  Q  Q  Q     Q  H.        +H     E E E E
|-----------------|-------------|-------------||----3-------|-(3)----3-------|
|-2-1-0-----------|-------------|-------4--7--||----3-------|-(3)----3-------|
|-------3-2-1-0---|-------------|-3--6--------||----0-------|-(0)----0-------|
|---------------4-|-------4--6--|-------------||----0-------|-(0)----0-------|
|-----------------|-4--6--------|-------------||------------|----------------|
|-----------------|-------------|-------------||-3----------|----------3-3-3-|


  E Q  E +E  E E E   E Q  E +E  E E E   E E E E E E E E   S S E E E E E E E
|------------------|------------------|---------------2-|-3p0---------------|
|------------------|------------------|-----------2-3---|-------------------|
|------------------|------------------|-------3-4-------|-------------------|
|---4--5-(5)-------|---4--5-(5)-------|---4-5-----------|-------------------|
|------------------|------------------|-----------------|-------------------|
|-3----------3-3-3-|-3----------3-3-3-|-3---------------|-----3-3-3-3-3-3-3-|


  E Q      E E E Q        E Q      E +E  E E E
|-----------------------|----------3-(3)-------|
|---3--------5---3------|---3------3-(3)-------|
|---3b3.5----5---3b3.5--|---3b3.5--3-(3)-------|
|--------------0--------|----------------0---0-|
|-----------------------|----------------------|
|-3--------3------------|-3----------------3---|


    ~~~~~
  E Q  E +E  E E E   E Q  E +E  E E E
|------------------|------------------|
|-4-3--3-(3)-------|------------4-3---|
|------------------|------------------|
|------------4-4-4-|-4-5--5-(5)-----4-|
|------------------|------------------|
|------------------|------------------|


  E E E E E E E E   E E E E E E E E
|-----------------|-----------------|
|---4-3-----4-3---|---4-3-----4-4-0-|
|-----------------|-----------------|
|-5-----4-5-----4-|-5-----4-5-------|
|-----------------|-----------------|
|-----------------|-----------------|


                   ~~~
  a    +Q    a    +Q   +Q    E E   E E a    +E.  S S S E E S    +S
|--------------------------------|------------------------------------|
|-6b8==(6)r--6b8==(6)--(6)r--6-3-|-6-3-----------3--------------------|
|--------------------------------|-----5b7==(5)r---5p3-----5b7==(5)r==|
|--------------------------------|---------------------5-5------------|
|--------------------------------|------------------------------------|
|--------------------------------|------------------------------------|


  +S  S E E S    +S  +S  S E E S    +S
|---------------------------------------|
|---------------------------------------|
|-(5)p3---3-5b7==(5)r(5)p3---3-5b7==(5)r|
|-------5------------------5------------|
|---------------------------------------|
|---------------------------------------|


  +S  S E E S    +S  +S  S E E S    +S    +S  S E E E E E E E
|---------------------------------------|---------------------|
|---------------------------------------|-------------------6-|
|-(5)p3---3-5b7==(5)r(5)p3---3-5b7==(5)r|=(5)p3---------------|
|-------5------------------5------------|-------5-5-5-5-5-5---|
|---------------------------------------|---------------------|
|---------------------------------------|---------------------|


  +E  Q  E +E  E E E   E Q  E +E  E E E
|--------------------|------------------|
|-(6)-5--3-(3)---3-3-|-6-5--3-(3)---3---|
|--------------5-----|------------5---6-|
|--------------------|------------------|
|--------------------|------------------|
|--------------------|------------------|


                      ~
  +E  Q  E E E  E E   Q   E E  a      +E   +E  E E
|-------------------|---------10b12==(10)r(10)-----|
|-----------------8-|-8--10-8------------------8---|
|-(6)-5--3-5-3-/9---|----------------------------9-|
|-------------------|------------------------------|
|-------------------|------------------------------|
|-------------------|------------------------------|


  ~                                                                 ~~
  Q   E E e  a        +Q     a        +E     +E    E  E  E  E  E E  E
|-----------13b14.5==(13)r--13b14.5==(13)-|-(13)r----10-13-10---------|
|-8--10-8-8-------------------------------|-------13----------13---11-|
|-----------------------------------------|---------------------------|
|-----------------------------------------|---------------------------|
|-----------------------------------------|---------------------------|
|-----------------------------------------|---------------------------|


                                                    ~~
   +H.      E  a      +E     +E    E  E  E  E  E E  E
|-------------13b15==(13)-|-(13)r-13-10-13-10----------|
|-(11)--------------------|-------------------13---11--|
|-------------------------|----------------------------|
|-------------------------|----------------------------|
|-------------------------|----------------------------|
|-------------------------|----------------------------|


   +Q    E  E  E  E E E   E Q  E +E  E  E E    a      +E   E  a  S S E E E E E
|-----------------------|-------------------|-------------10-------------------|
|-(11)--11-11-11-10-8---|-8-8--8-(8)-8-10-8-|-10b12==(10)----10r10p8---8-6-5-3-|
|---------------------9-|-------------------|------------------------9---------|
|-----------------------|-------------------|----------------------------------|
|-----------------------|-------------------|----------------------------------|
|-----------------------|-------------------|----------------------------------|


  |-3-| |-3-|           |-3-| |-3-| |-3-| |-3-|   |-3-| |-3-| |-3-| |-3-|
  E E E E E E E E E E   E E E E E E E E E E E E   E E E E E E E E E E E E
|---------------------|-------------------------|-----------3-------------|
|-----3---------------|-----6-------------------|-----3-5h6---6p5-3-----3-|
|-6s5---6s5p3-5-3-5-3-|-5p3---6p5-3-5h6-3-6p5-3-|-5h6---------------5h6---|
|---------------------|-------------------------|-------------------------|
|---------------------|-------------------------|-------------------------|
|---------------------|-------------------------|-------------------------|


  |-3-| |-3-| |-3-| |-3-|   |-3-| |-3-| |-3-| |-3-|
  E E E E E E E E E E E E   E E E E E E E E E E E E   Q  Q  Q  Q
|-----3-----------------3-|-----------------3-------|----3-----3---|
|-5h6---6p5-3-----3-5h6---|-6p5-3-----3-5h6---6p5-3-|----3-----3---|
|-------------5h6---------|-------5h6---------------|--------------|
|-------------------------|-------------------------|--------------|
|-------------------------|-------------------------|--------------|
|-------------------------|-------------------------|-3-----3------|


  E E E E E E E E   S S S S S S S S S S S S S S S S
|---3-3-3-3-------|---0---0---0---0---0---0---0-0-0-|

|---3-3-3-3-0-1-2-|-3---3---3---3---3---3---3-------|
|-----------------|---------------------------------|
|-----------------|---------------------------------|
|-----------------|---------------------------------|
|-3---------------|---------------------------------|


  S S S S S S S S S S S S S S S S
|-3-3-3-2-0-0-----3-3-2-2-0-0-------|
|-------------3-3-------------3-3---|
|-----------------------------------|
|-----------------------------------|
|-----------------------------------|
|-----------------------------------|


                                                               ~
                                  |-3-|
  S S S S S S S S S S S S S S E   E E E S S S S S S S S S E.   H    +E  E E E
|-3-3-2-2-0-0-----3-3-2-2-0-0---|----------------------------|-----------------|
|-------------3-3-------------3-|-2h3p2h3p2h3p2h3p2h3p2h3p2--|-3----(3)-3s5-3--|
|-------------------------------|----------------------------|-----------------|
|-------------------------------|----------------------------|-----------------|
|-------------------------------|----------------------------|-----------------|
|-------------------------------|----------------------------|-----------------|


                                         Gtr II
                                   ~
  |-3-|         |-3-| |-3-|
  E E E S S S S E E E E E E   Q.   E +Q.   E   E Q  E +E  Q  E
|---------------------------|----------------|------------------|
|-2h3p2h3p2h3p2h3p2h3p2h3p2-|-3----3-(3)-----|---6--5-(5)-3-----|
|---------------------------|----------------|------------------|
|---------------------------|----------------|------------------|
|---------------------------|--------------5h|=8----7-(7)-5--3s=|
|---------------------------|----------------|------------------|


  E Q  E +E  Q  E   E  Q  E +E  Q  E   E Q  E Q  Q      W
|-----------------|------------------|--------------|--------|
|---3--3-(3)-3----|---/6--5-(5)-3----|---3--3-------|-/10----|
|-----------------|------------------|--------0--0--|--------|
|-----------------|------------------|--------------|--------|
|-5-5--5-(5)-5--5-|---/8--7-(7)-5--3s|=5-5----------|-/12----|
|-----------------|-3----------------|--------------|--------|


   |--3--|
   E  E  E  E E +E  Q   E   E Q  E +E  Q  E   E Q  E E Q  E
|-------------------------|-----------------|---------------|
|-10s11s10----8-(8)-6---8-|-6-6--6-(6)-5--6-|-5-3--5-3-1--3-|
|-------------------------|-----------------|---------------|
|-------------------------|-----------------|---------------|
|-12s13s12-10-------6--10-|-8-8--8-(8)-7--8-|-7-5--7-5-3--5-|
|-------------------------|-----------------|---------------|


               Gtr I
         |-3-|
  E Q  E Q Q Q   Q  Q  Q  Q    Q  Q  Q  E E   Q  Q  Q  Q
|--------------|-------------|--------------|--------------|
|-1-0--1-0-0---|-------------|--------------|--------------|
|--------------|-------------|--------------|--------------|
|--------------|-------------|--------------|--------------|
|-3-2--3-2-2-6s|=5--5--5--5--|-6--5--5--5-5-|-6--5--4--5---|
|------------4s|=3--3--3--3--|-4--3--3--3-3-|-4--3--2--3---|


                                          Gtr IIGtr I
  Q  Q  Q  Q    Q  Q  Q  Q    Q  Q  Q  Q      Q  Q  +E  E E E
|-------------|----3-----3--|----3-----3--|-/18---------------|
|-------------|----3-----3--|----3-----3--|-------------------|
|-------------|----0-----0--|----0-----0--|-------------2-3-0-|
|-------------|-------------|-------------|------0--(0)-------|
|-6--5--4--5--|-------------|-------------|-------------------|
|-4--3--2--3--|-3-----3-----|-3-----3-----|-------------------|


  Gtr Gtr I           Gtr Gtr I         G
    Q  Q  +E  E E E     Q  Q  +E  E E E
|-/19---------------|-/19---------------|
|-------------------|-------------------|
|-------------2-3-0-|-------------2-3-0-|
|------0--(0)-------|------0--(0)-------|
|-------------------|-------------------|
|-------------------|-------------------|


 tr II
    E E E   E E E   E E   E   E E E   E E E  E
|-/17-----/14-----/15---|---/17-----/17---------|
|-----------------------|-----------------0-12s=|
|-----0-0-----0-0-------|-0-------0-----0-------|
|---------------------0-|-------0---------------|
|-----------------------|-----------------------|
|-----------------------|-----------------------|


  Gtr I
   |3-|  |--3--|              |--3--|
   Q  E  E  E  E  S  S  S  S  E  E  E
|----13----13----13----13----13----13-|
|-15----15----15----15----15----15----|
|-------------------------------------|
|-------------------------------------|
|-------------------------------------|
|-------------------------------------|


   |--3--|  |--3--|  |--3--|  |-3--|    |--3--|      |--3--|
   E  E  E  E  E  E  E  E  E  E  E E    E  E  E  Q   E  E  E  Q
|----13----13----13----13----13------|-18p15----15--18p15----15--|
|-15----15----15----15----15----15-x-|-------15-----------15-----|
|------------------------------------|---------------------------|
|------------------------------------|---------------------------|
|------------------------------------|---------------------------|
|------------------------------------|---------------------------|


   |--3--|      |--3--|        |--3--|      |--3--|
   E  E  E  Q   E  E  E  Q     E  E  E  Q   E  E  E  Q
|-18p15----15--18p15----15--|-18p15----15--18p15----15--|
|-------15-----------15-----|-------15-----------15-----|
|---------------------------|---------------------------|
|---------------------------|---------------------------|
|---------------------------|---------------------------|
|---------------------------|---------------------------|


   |--3--|      |--3--|
   E  E  E  Q   E  E  E  Q
|-18p15----15--18p15----15---|
|-------15-----------15------|
|----------------------------|
|----------------------------|
|----------------------------|
|----------------------------|


   |--3--|  |-3--|                |--3--|
   E  E  E  E  E E  a      +Q     E  E  E
|-18p15----15--------------------15-------|
|-------15----15-x-18b20==(18)r-----18p15-|
|-----------------------------------------|
|-----------------------------------------|
|-----------------------------------------|
|-----------------------------------------|


   |--3--|  |--3--|
   E  E  E  E  E  E  E  Q   E    +E   Q   E  E  Q   E
|-----------------------------|----------------13------|
|-------------------17-17--17-|-(17)-15--------15------|
|-18p17-15-17p15----17-17--17-|-(17)-15----------------|
|----------------17-17--------|----------17-17-----17--|
|-----------------------------|------------------------|
|-----------------------------|------------------------|


   E  E  E  E       E  Q   E
|---------------------15-----|
|-17----15-15---------15-----|
|-17----15-15b15.5-----------|
|----17------------17-----17-|
|----------------------------|
|----------------------------|


   E  E  E  E       E  Q   E    E  E  E  E       E  Q   E
|---------------------13-----|---------------------15-----|
|-17----15-15---------15-----|-17----15-15---------15-----|
|-17----15-15b15.5-----------|-17----15-15b15.5-----------|
|----17------------17-----17-|----17------------17-----17-|
|----------------------------|----------------------------|
|----------------------------|----------------------------|


                                        |--3--|  |--3--|  |--3--|  |--3--|
   E  E  E  E       E  E  S  S  S  S    E  E  E  E  E  E  E  E  E  E  E  E
|---------------------15-18p17p15----|-15----------------------------------|
|-17----15-15---------------------15-|----18-15-18p17-15-------------------|
|-17----15-15b15.5-------------------|-------------------18s17-15-17p15----|
|----17------------17----------------|----------------------------------17-|
|------------------------------------|-------------------------------------|
|------------------------------------|-------------------------------------|


   |--3--|  |--3--|  |--3--|  |--3--|
   E  E  E  E  E  E  E  E  E  E  E  E
|-------------------------------------|
|-------------------------------------|
|-17----15----------------------------|
|----17----17-15----------------------|
|----------------17s15-13-15-13-------|
|-------------------------------15-15-|


   Q   E  E  E  E  E  E    +E   Q   +E   E  E  E  E
|-----------------------|---------------------------|
|-----------------------|---------------------------|
|-----------------------|---------------------------|
|-----------------------|---------------------------|
|-----------13-13-13-15-|-(15)-14--(14)-14----15-14-|
|-15--15-15-------------|------------------15-------|


   +E   E  E  E  +E   Q   E    +E   E  E  E  E  E  Q
|---------------------------|--------------------------|
|---------------------------|--------------------------|
|---------------------------|--------------------------|
|---------------------------|--------------------------|
|-(14)----15-14-(14)-14--14-|-(14)-14-14-14-14-14-14\--|
|------15-------------------|--------------------------|


  Q  H.        +W           E E E E E E E E   Q  q  Q  q    Q  q  Q  q
|------------|------------|-----------------|-------------|-------------|
|----3-------|-(3)--------|-3-3-3-3-3-3-3-3-|-4S=3--4S=3--|-4--3--4--3--|
|----0-------|-(0)--------|-----------------|-5S=4--5S=4--|-5--4--5--4--|
|----0-------|-(0)--------|-----------------|-6S=5--6S=5--|-6--5--6--5--|
|------------|------------|-----------------|-6S=5--6S=5--|-6--5--6--5--|
|-3----------|------------|-----------------|-------------|-4--3--4--3--|


  E E E E Q  E E   Q  E E Q  E E   Q  Q  Q  Q    Q  Q  Q  Q    Q  Q  Q  Q
|----------------|---------------|-------------|-------------|-------------|
|----------------|---------------|-------3-----|-6--3--6--3--|-6--3--6--3--|
|----------------|---------------|-------0-----|-------------|-------------|
|------------2---|----2------2---|-------0-----|-------------|-------------|
|-----2-3-5----3-|-5----3-5----3-|-5-----------|-8--5--8--5--|-8--5--8--5--|
|-3-5------------|---------------|----3-----3--|-------------|-------------|


                             PM---------------
  Q  H.        +H.      Q    E E E E E E E E
|------------|-------------|-----------------|
|----3-------|-(3)---------|-----------------|
|----0-------|-(0)---------|-----------------|
|----0-------|-(0)---------|---0---0---0---0-|
|------------|-------------|-----------------|
|-3----------|----------3--|-3---3---3---3---|


 ---------------|
  E E E E E E E E    +E  E E E E E E E
|-----------------||-----7-7-7-7-7-7-7-|
|-----------------||-----7-7-7-7-7-7-7-|
|---------------0-||-(0)---------------|
|---0---0---0-----||-------------------|
|-----------------||-------------------|
|-3---3---3---3---||-------------------|


  E E  E  E E E E E   E E  E  E  E  E E E
|-7-7--7--7-7-7-7-7-|-5S7--7--7--5S=7-7-7-|
|-7-7--7--7-7-7-7-7-|-5S7--7--7--5S=7-7-7-|
|-----(0)-----------|-----(0)---(0)-------|
|-------------------|---------------------|
|-------------------|---------------------|
|-------------------|---------------------|


  E E E E  E  E  E  E   E E E E  E  E E E
|-5S7-7-7--5S=7--7--7-|-7-6-6-5--5--4-4-3-|
|-5S7-7-7--5S=7--7--7-|-7-6-6-5--5--4-4-3-|
|---------(0)---(0)---|---------(0)-------|
|---------------------|-------------------|
|---------------------|-------------------|
|---------------------|-------------------|


             Gtr II   Gtr I  Gtr II   Gtr I
   Q   E E Q  E E   Q  E E Q  E E   E  E E E  E  E E E    E  E E E  E  E E E
|--3---6s5-3------|----6s5-3------|----7-7-7--7--7-7-7-|--7--7-7-7--7--7-7-7-|
|--3---6s5-3------|----6s5-3------|----7-7-7--7--7-7-7-|--7--7-7-7--7--7-7-7-|
|-(0)-------------|---------------|----------(0)-------|-(0)-------(0)-------|
|-------------8s7-|-5---------8s7-|-5------------------|---------------------|
|-------------8s7-|-5---------8s7-|-5------------------|---------------------|
|-----------------|---------------|--------------------|---------------------|


  E E E E E E  E  E    E  E E E  E  E E E
|-5S7-7-7-5S7--7--7-|--5S=7-7-7--5S=7-7-7-|
|-5S7-7-7-5S7--7--7-|--5S=7-7-7--5S=7-7-7-|
|-------------(0)---|-(0)-------(0)-------|
|-------------------|---------------------|
|-------------------|---------------------|
|-------------------|---------------------|


                                       Gtr II
   E  E  E  E  E  E  E  E    Q   E E Q  E E
|--7--6--6--5--5--4--4--3-|--3---6s5-3------|
|--7--6--6--5--5--4--4--3-|--3---6s5-3------|
|-(0)---(0)---(0)---(0)---|-(0)-------------|
|-------------------------|-------------8s7-|
|-------------------------|-------------8s7-|
|-------------------------|-----------------|


    Gtr I    Gtr Gtr I
                    PM---------------
  Q  E E  Q   Q     E E E E E E E E
|----6s5--3---x--||-----------------|
|----6s5--3---x--||-----------------|
|--------(0)-----||-----------------|
|-5--------------||---3---3---3---3-|
|-5--------------||-1---1---1---1---|
|----------------||-----------------|


 ---------------|
  E E E E E E E E   E  E  E  E  E  E  E  E
|-----------------|---10-10-10-10-10-10-10--|
|-----------------|---10-10-10-10-10-10-10--|
|---------------3-|-------------------------|
|---3---3---3---3-|-------------------------|
|-1---1---1---1---|-------------------------|
|-----------------|-------------------------|


   E  E  E  E  E  E  E  E   E  E  E  E E  E  E  E
|-10-10-10-10-10-10-10-10-|-8S10-10-10-8S10-10-10-|
|-10-10-10-10-10-10-10-10-|-8S10-10-10-8S10-10-10-|
|-------------------------|-----------------------|
|-------------------------|-----------------------|
|-------------------------|-----------------------|
|-------------------------|-----------------------|


  E  E  E  E E  E  E  E    E E E E E E E E
|-8S10-10-10-8S10-10-10-|-10-9-9-8-8-7-7-6--|
|-8S10-10-10-8S10-10-10-|-10-9-9-8-8-7-7-6--|
|-----------------------|-------------------|
|-----------------------|-------------------|
|-----------------------|-------------------|
|-----------------------|-------------------|


           Gtr II     Gtr I  Gtr II
  Q  E E Q   E  E   Q  E E Q   E  E
|-6--9s8-6--------|----9s8-6--------|
|-6--9s8-6--------|----9s8-6--------|
|-----------------|-----------------|
|-----------11s10-|-8---------11s10-|
|-----------11s10-|-8---------11s10-|
|-----------------|-----------------|


    Gtr I
  E   E  E  E  E  E  E  E    E E E E E E E E
|----10-10-10-10-10-10-10-|-10---------------|
|----10-10-10-10-10-10-10-|-10---------------|
|-------------------------|----7-7-7-7-7-7-7-|
|-8-----------------------|------------------|
|-8-----------------------|------------------|
|-------------------------|------------------|


   E E E  E E E  E E    E E E  E E E  E E
|-10-----10-----10---|-10-----10-----10---|
|-10-----10-----10---|-10-----10-----10---|
|----7-7----7-7----7-|----7-7----7-7----7-|
|--------------------|--------------------|
|--------------------|--------------------|
|--------------------|--------------------|


                              Gtr II
   E E E E E E E E   Q  E E Q   E  E
|-10-9-9-8-8-7-7-6-|-6--9s8-6---------|
|-10-9-9-8-8-7-7-6-|-6--9s8-6---------|
|------------------|------------------|
|------------------|-----------11s10--|
|------------------|-----------11s10--|
|------------------|------------------|


    Gtr I  Gtr II    Gtr I  Gtr II   Gtr I
  Q  E E Q  Q      Q  E E Q  E E   Q  E E Q  Q      e e e e e e e e
|----9s8-6------||----6s5-3------|----6s5-3------||------------------|
|----9s8-6------||----6s5-3------|----6s5-3--5/--||-8-7-6-5-4-3-2-1--|
|---------------||---------------|---------------||------------------|
|-8---------8\--||-5---------8s7-|-5-------------||------------------|
|-8---------8\--||-5---------8s7-|-5-------------||------------------|
|---------------||---------------|---------------||------------------|


  e e e e e e e e   Q  Q  Q  Q    Q  Q  Q  Q    Q  Q  Q  Q    Q  Q  Q  Q
|-----------------|-------------|-------------|-------------|-------------|
|-2-1-0-----------|-------------|-------4--7--|----3-----3--|----3-----3--|
|-------3-2-1-0---|-------------|-3--6--------|----0-----0--|----0-----0--|
|---------------4-|-------4--6--|-------------|----0-----0--|----0-----0--|
|-----------------|-4--6--------|-------------|-------------|-------------|
|-----------------|-------------|-------------|-3-----3-----|-3-----3-----|


  Q  Q  Q  Q    Q  Q  Q  Q    Q  Q  Q  Q
|-------------|-------------|-------------|
|-------------|-------4--7--|----3-----3--|
|-------------|-3--6--------|----0-----0--|
|-------4--6--|-------------|----0-----0--|
|-4--6--------|-------------|-------------|
|-------------|-------------|-3-----3-----|


                 PM------------------|
  Q  Q  Q  Q     E  E  E  E  +E   Q   E
|-------------|-------------------------|
|----3-----3--|-------------------------|
|----0-----0--|-------------------------|
|----0-----0--|-------------------------|
|-------------|-12-12-12-12-(12)-12--12-|
|-3-----3-----|-10-10-10-10-(10)-10--10-|


    PM-----------|
   +E   Q   E  E  E  q     E  E  E  E  +E   Q   E
|-----------------------|-10-10-10-10-(10)-10--10-|
|-----------------------|-10-10-10-10-(10)-10--10-|
|-----------------------|-11-11-11-11-(11)-11--11-|
|-----------------------|-12-12-12-12-(12)-12--12-|
|-(12)-12--12-12-12-12--|-12-12-12-12-(12)-12--12-|
|-(10)-10--10-10-10-10--|-10-10-10-10-(10)-10--10-|


   +E   Q   E  E  E  q    Q  Q  Q  Q
|-(10)-10--10-10-10-10--|-3--2--3--2--|
|-(10)-10--10-10-10-10--|-3--3--3--3--|
|-(11)-11--11-11-11-11--|-4--2--4--2--|
|-(12)-12--12-12-12-12--|-------------|
|-(12)-12--12-12-12-12--|-------------|
|-(10)-10--10-10-10-10--|-------------|


  Q  Q  Q  Q    e S S E E E S S E E   E S S E E E S S E E   E E E E E E E E
|-3--2--3--2--|-3-3-3-3-3-3---------|---------------------|-----------------|
|-3--3--3--3--|-3-----------3-3-3-3-|-3-------------------|-------------3---|
|-4--2--4--2--|-4-------------------|---4-4-4-4-4---------|---------4-----4-|
|-------------|---------------------|-------------5-5-5-5-|-5---5-----5-----|
|-------------|---------------------|---------------------|---5---5---------|
|-------------|---------------------|---------------------|-----------------|


                                                               >
  q  E S S E E E E   q  E S S q  Q    W          +W           +W
|-3----3-3-3-3-3-3-|-3----7-7-7-----|----------|------------|--------*|
|------3-3-3-3-3-3-|-3----8-8-8-----|-3--------|-(3)--------|-(3)----*|
|------4-4-4-4-4-4-|-4----7-7-7-----|-0--------|-(0)--------|-(0)----*|
|------5-5-5-5-5-5-|-5----9-9-9-----|-0--------|-(0)--------|-(0)----*|
|------------------|----------------|-2--------|-(2)--------|-(2)----*|
|------------------|----------------|-3--------|-(3)--------|-(3)----*|





Comments


Popular Edmunds Dave tabs & chords
Crawling From The Wreckage Chords
Girls Talk Chords
I Hear You Knocking Chords
Ju Ju Man Chords
Take Me For A Little While Chords
Standing At The Crossroads Tabs


Song lyrics



↑ Back to top | Tablatures and chords are parodies/interpretations of the original songs. You may use it for private study, scholarship, research or language learning purposes only
© 2014 AZChords.com Contact us | Privacy policy | DMCA | Add/correct tabs | Request tabs | Top 50 tabs