>
 >
Let Your Good Heart Lead You Home

Let Your Good Heart Lead You Home Bass Tabs

Editors - Let Your Good Heart Lead You Home chords, tabs, tablatures, lyrics

Guitar lessons | Add/correct | Request | Top 50 tabs Artists:  A B C D E F G H I J K L M N O P Q R S T U V W X Y Z 0-9

Let Your Good Heart Lead You Home Bass Tabs – Editors

CD, Sheet music, Poster

Do you like Let Your Good Heart Lead You Home? Share with your friends now
Bass TabsBass Tabs v2


Tuning:

G|-----------------------------------------------------------------------------|
D|-----------------------------------------------------------------------------|
A|-7---------------------------------------------------------------------------|
E|----7----5---3-5-3--2-0------------------------------------------------------|

G|---------------------------------------------------------------------------|
D|---------------------------------------------------------------------------|
A|-7------3--5--7------------------------------------------------------------|
E|----7-------------2--0-----------------------------------------------------|

| /  slide up
| \  slide down
| h  hammer-on
| p  pull-off
| ~  vibrato
| +  harmonic
| x  Mute note





Comments


Popular Editors tabs & chords
Escape The Nest Bass Tabs
Lights Bass Tabs
Blood Chords
Bones Chords
Hyena Accoustic Chords
Papillon Tabs
Papillon 4 Tabs
Some Kind Of Spark Intro Tabs
French Disko Ukulele
Open Up Ukulele


Song lyrics



↑ Back to top | Tablatures and chords are parodies/interpretations of the original songs. You may use it for private study, scholarship, research or language learning purposes only
© 2014 AZChords.com Contact us | Privacy policy | DMCA | Add/correct tabs | Request tabs | Top 50 tabs