» » »

Human Tabs (ver.1)

Artists:  A B C D E F G H I J K L M N O P Q R S T U V W X Y Z # 

Human Tabs (ver.1)

Editors
Rating:
0/5 (0 votes)

Tabs too difficult? Try these video lessons and learn fast.
                			     Human - Editors

intro riff:
e|-----------|-----------|
B|-----------|-----------|
G|-5-7-5-----|--5-7-5----|
D|--------5--|---------7-|
A|-----------|-----------|
E|-----------|-----------|

intro + verse:
e|---------------------------------|--------------------------------|
B|---------------------------------|--------------------------------|
G|---------------------------------|--------------------------------|
D|-3-3-3-3-3-3-3-3-3-3-3-3---------|2-2-2-2-2-2-2-2-5-5-5-5-5-5-5-5-|
A|-------------------------3-3-3-3-|--------------------------------|
E|---------------------------------|--------------------------------|

slide riff after chorus:
e|-10-10-10\8-8-8-8\7-7-7-7\5-5/7------------------------------------
B|-------------------------------------------------------------------
G|----------------------------------12-12-12\9-9-9-9\7-7-7-7\5-5-5\2-
D|-------------------------------------------------------------------
A|-------------------------------------------------------------------
E|-------------------------------------------------------------------

-------------------------------------------------------------|
-------------------------------------------------------------|
-7-7-7\5-5-5-5\4-4-4-4/5-5-0---5-5-5/7-7-7-7/9-9-9-9/12-12\9-|
-------------------------------------------------------------|
-------------------------------------------------------------|
-------------------------------------------------------------|




************************************

| /   slide up
| \   slide down
| h   hammer-on
| p   pull-off
| ~   vibrato
| +   harmonic
| x   Mute note
| b   Bend
| pb  Pre-bend
| br  Bend release
| pbr Pre-bend release
| brb Bend release bend

************************************
            
Tabs too difficult? Try these video lessons and learn fast.




comments powered by Disqus
↑ Back to top | Tablatures and chords are parodies/interpretations of the original songs. You may use it for private study, scholarship, research or language learning purposes only