» » »

Editors, Fingers In The Factories Bass tabs (ver.1)

Artists:  A B C D E F G H I J K L M N O P Q R S T U V W X Y Z # 

Fingers In The Factories Bass tabs (ver.1)

Editors Tabs
Rating:
0/5 (0 votes)
Fingers In The Factories lessons Tabs too difficult? Try these video lessons and learn fast
                Editors - Fingers In The Factory, from album The Back Room

Intro/Verse
G|----|
D|----| 
A|-5~-|
E|----|

G|---------------------------------------------------------|
D|-------------------------------------------------2-2-4-4-| 
A|-4-4-4-4-4-4-4-4-4-4-4-4-2-2-2-2-2-2-2-2-2-2-2-2---------|
E|---------------------------------------------------------|

G|---------------------------------------------------------|
D|---------------------------------------------------------| 
A|---------------------------------5-5-5-5-5-5-5-5-5-5-5-5-|
E|-2-2-2-2-2-2-2-2-2-2-2-2-4-4-4-4-------------------------|
                                                                     X5
G|-----------------------------------------------------------------|
D|-------------------------4-4-2-2-------------------------2-2-4-4-| 
A|-4-4-4-4-4-4-4-4-4-4-4-4---------2-2-2-2-2-2-2-2-2-2-2-2---------|
E|-----------------------------------------------------------------|
                                                                     
G|---------------------------------------------------------|
D|---------------------------------------------------------| 
A|---------------------------------5-5-5-5-5-5-5-5-5-5-5-5-|
E|-2-2-2-2-2-2-2-2-2-2-2-2-4-4-4-4-------------------------|

G|-----------------------------------------------------------------|
D|-------------------------4-4-2-2---------------------------------| 
A|-4-4-4-4-4-4-4-4-4-4-4-4---------2-2-2-2-2-2-2-2-2-2-2-2-2-2-2-2-|
E|-----------------------------------------------------------------|

Chorus
G|-------4-6-------4-6-------2-------2-|
D|-4-4-4-----4-4-4-----2-2-2---2-2-2---| X2
A|-------------------------------------|
E|-------------------------------------|

Post Chorus
G|---------------------------|
D|---------------------------| X2
A|-5-5-5-5-5-4-7-7-7-7-7-7-9-|
E|---------------------------|

Verse
G|---------------------------------------------------------|
D|---------------------------------------------------------| 
A|---------------------------------5-5-5-5-5-5-5-5-5-5-5-5-|
E|-2-2-2-2-2-2-2-2-2-2-2-2-4-4-4-4-------------------------|
                                                                     X3
G|-----------------------------------------------------------------|
D|-------------------------4-4-2-2-------------------------2-2-4-4-| 
A|-4-4-4-4-4-4-4-4-4-4-4-4---------2-2-2-2-2-2-2-2-2-2-2-2---------|
E|-----------------------------------------------------------------|

Chorus
G|-------4-6-------4-6-------2-------2-|
D|-4-4-4-----4-4-4-----2-2-2---2-2-2---| X2
A|-------------------------------------|
E|-------------------------------------|

Post Chorus
G|---------------------------|
D|---------------------------| X2
A|-5-5-5-5-5-4-7-7-7-7-7-7-9-|
E|---------------------------|

(Pause)

Bridge
G|-----------------------------------------------------------------|
D|-----------------------------------------------------------------| 
A|-----------------------------------------------------------------|
E|-2-2-2-2-2-2-2-2-2-2-2-2-4-4-4-4-5-5-5-5-5-5-5-5-5-5-5-5-7-7-7-7-|
                                                                     X2
G|-----------------------------------------------------------------|
D|-----------------------------------------------------------------| 
A|-----------------------------------------------------------------|
E|-9-9-9-9-9-9-9-9-9-9-9-9-7-7-7-7-5-5-5-5-5-5-5-5-5-5-5-5-4-4-4-4-|

G|-----------------------------------------------------------------|
D|-----------------------------------------------------------------| 
A|-----------------------------------------------------------------|
E|-2-2-2-2-2-2-2-2-2-2-2-2-4-4-4-4-5-5-5-5-5-5-5-5-5-5-5-5-7-7-7-7-|

G|---------------------------------------------------------|
D|---------------------------------------------------------| 
A|---------------------------------------------------------|
E|-9-9-9-9-9-9-9-9-9-9-9-9-7-7-7-7-5-5-5-5-5-5-5-5-5-5-5-5-|

Chorus
G|-------4-6-------4-6-------2-------2-|
D|-4-4-4-----4-4-4-----2-2-2---2-2-2---| X2
A|-------------------------------------|
E|-------------------------------------|

Post Chorus
G|---------------------------|
D|---------------------------| X4
A|-5-5-5-5-5-4-7-7-7-7-7-7-9-|
E|---------------------------|

End
G|---------------------------------------|
D|---------------------------------------| 
A|-9-9-9-99-9-9-9-99-9-9-9-99-9-9-9/-----|
E|-----------------------------------2-2-|

That’s what I think it goes like

Adam Vaughan
            
Submit corrections

comments powered by Disqus
↑ Back to top | Editors Bass for Fingers In The Factories. Lyrics for acoustic guitar and electric guitar. Tablatures and chords are parodies/interpretations of the original songs. You may use it for private study, scholarship, research or language learning purposes only