» » »

Editors, Fingers In The Factories Tabs (ver.1)

Artists:  A B C D E F G H I J K L M N O P Q R S T U V W X Y Z # 

Fingers In The Factories Tabs (ver.1)

Editors Tabs
 Rating:
4/5 (4 votes)
Fingers In The Factories lessons Tabs too difficult? Try these video lessons and learn fast
                intro :

the first guitar
e|---------------------|
B|---------------------|
G|-----4-4-----4-4-----| several times
D|-x-2-----x-2---------| it's playing in counter tap, x means the tom
A|---------------------|
E|---------------------|
then
e|------------------------------12-12---|
B|------------------------------10-10---|
G|-----4-4-----4-4------4-4-------------|
D|-x-2-----x-2------x-2-----------------| x 2
A|--------------------------------------|
E|--------------------------------------|

and the second guitar (tom smith)

e|---------------------------------------|
B|-12-12-12-10-10-10-9-9-9---------------|
G|-------------------------9-9-9-9-9-9-9-|
D|---------------------------------------|
A|---------------------------------------|
E|---------------------------------------|

Verse :

tom smith plays this :
    C#m     D       C#m     Bm
e|--4----|--5----|--4----|--2----|
B|--5----|--5----|--5----|--3----|
G|--6----|--7----|--6----|--4----|
D|--6----|--7----|--6----|--4----|
A|--4----|--5----|--4----|--2----|
E|-------|-------|-------|-------|

the other guy plays the same thing but only the 3 first strings eBG

Chorus :

maybe i'm wrong but it is something like this

e|-12-12-12-...-12-12-12-...--12-12-12-...-12-12-12---|
B|-9--9--9--...-10-10-10-...--12-12-12-...-14-14-14---|
G|----------------------------------------------------|
D|----------------------------------------------------|
A|----------------------------------------------------|
E|----------------------------------------------------|

bridge :

e|---------------------------------------|
B|-12-12-12-10-10-10-9-9-9---------------|
G|-------------------------9-9-9-9-9-9-9-|
D|---------------------------------------| x6
A|---------------------------------------|
E|---------------------------------------|

e|-12-12-12-9-9-9-7-7-7-9-9-9-9-9-9-9-|
B|------------------------------------|
G|------------------------------------|
D|------------------------------------| x4
A|------------------------------------|
E|------------------------------------|
            
Submit corrections

comments powered by Disqus
↑ Back to top | Editors Tabs for Fingers In The Factories. Lyrics for acoustic guitar and electric guitar. Tablatures and chords are parodies/interpretations of the original songs. You may use it for private study, scholarship, research or language learning purposes only