>
 >
Feel Good Inc

Feel Good Inc Guitar Tabs

Editors - Feel Good Inc chords, tabs, tablatures, lyrics

Guitar lessons | Add/correct | Request | Top 50 tabs Artists:  A B C D E F G H I J K L M N O P Q R S T U V W X Y Z 0-9

Feel Good Inc Guitar Tabs – Editors

CD, Sheet music, Poster

Do you like Feel Good Inc? Share with your friends now
Tabs
Editors   -   Feel Good Inc (Acoustic Live Lounge Cover)
original by  -  Gorillaz


I'm not completely sure but it sounds to me like Tom's playing the chords like this:

    C#m  G#m  F#m  G#m

e|-------------2--------|
B|---5----5----2----5---|
G|---4----4----2----4---|
D|---2----2----4----2---|
A|---4----2----4----2---|
E|--------4----2----4---|

use a Capo on 2 if you find this a little tricky,  or just play the usual barre chords



Strumming Pattern
-----------------
. . . .
v x^ ^v^



Riff 1
------

     C#m         G#m      F#m         G#m

e|-----------------------------------------|      end
B|-----------------------------------------|      with
G|-----------------------------------------|    |-------|
D|--------------7--6-----------7-6---------|    |-------|
A|---------6-7-----------9---9------7------|    |---7---|
E|---9---9-----------------------------9---|    |---9---|



Riff 2
------

     C#m            G#m      F#m              G#m

e|-----------------9--7--7-/-12--12-12--12-/14--14-/16--16-16\---|
B|---2-4--5--7--9--9--9--9-/-14--14-14--14-/16--16-/17--17-17\---|  during C#m chord
G|---------------------------------------------------------------|  hit open e string
D|---------------------------------------------------------------|  (e|--0--0--0---)
A|---------------------------------------------------------------|  between other notes
E|---------------------------------------------------------------|



Riff 1B
-------

     C#m         G#m        F#m         G#m

e|--------------------7----------------------9---|
B|--------------------9--7-------------------9---|
G|-----------------------------------------------|
D|--------------7--6--------------7-6------------|
A|---------6-7--------------9---9------7---------|
E|---9---9--------------------------------9------|





C#m   G#m   F#m   G#m
                      Feel good
C#m   G#m   F#m   G#m                  
                      Feel good    /
C#m   G#m   F#m   G#m              /  Riff 1
                                   /
C#m   G#m   F#m   G#m              /

C#m                       G#m                           /
City's breaking down on camel's back                    /
F#m                            G#m                      /
They just have to go cause they don't know wack         /  Riff 1
   C#m                           G#m                    /
So all fill the streets, it's appealing to see          /
     F#m                                  G#m           /
You won't get out the county cause you're bad and free  /

C#m                G#m
Windmill windmill for the land
F#m           G#m
Turn forever hand in hand
C#m                G#m
Take it all there on your stride
      F#m              G#m
It's ticking, falling down
C#m           G#m               /
Love forever love is free       /
       F#m         G#m          /
Let's turn forever you and me   /  Riff 2
C#m               G#m           /
Windmill windmill for the land  /
   F#m       G#m                /
Is everybody in?                /

          Feel good   /
C#m   G#m             /
          Feel good   /
F#m   G#m             /
                      /  Riff 1B
C#m   G#m             /
                      /
F#m   G#m             /

C#m                            G#m                       /
You got a new horizon, it's ephemoral style              /
   F#m                      G#m                          /
A melancholy town where we never smile                   /  Riff 1
    C#m                       G#m                        /
And all I wanna hear is the message beep                 /
    F#m                               G#m                /
My dreams they gotta kiss me cause I don't get sleep no  /

C#m                G#m            /
Windmill windmill for the land    /
F#m           G#m                 /
Turn forever hand in hand         /
C#m                G#m            /
Take it all there on your stride  /
      F#m              G#m        /
It's ticking, falling down        /  Riff 2
C#m           G#m                 /
Love forever love is free         /
       F#m         G#m            /
Let's turn forever you and me     /
C#m               G#m             /
Windmill windmill for the land    /
   F#m       G#m                  /
Is everybody in?                  /

          Feel good    /
C#m   G#m              /
          Feel good    /
F#m   G#m              /  Riff 1B
          Feel good    /
C#m   G#m              /
                       /
F#m   G#m              /

    C#m  G#m       F#m   G#m       /
I'm so  glad I've found this       /
    C#m  G#m     F#m  G#m          /
I'm so  glad I feel                /  Riff 1B
    C#m  G#m       F#m   G#m       /
I'm so  glad I've found this       /
    C#m  G#m     F#m  G#m          /
I'm so  glad I did      Feel good  /

C#m   G#m   F#m   G#m               /
                       Feel good    /  Riff 2
C#m   G#m   F#m   G#m               /





Comments


Popular Editors tabs & chords
Fall 1 Bass Tabs
Escape The Nest Chords
Lights 1 Chords
An End Has A Start 1 Tabs
Lights Tabs
The Weight Tabs
When Anger Shows Tabs
An End Has A Start Ukulele
Like Treasure Ukulele
Papillon 2 Ukulele


Song lyrics



↑ Back to top | Tablatures and chords are parodies/interpretations of the original songs. You may use it for private study, scholarship, research or language learning purposes only
© 2014 AZChords.com Contact us | Privacy policy | DMCA | Add/correct tabs | Request tabs | Top 50 tabs