» » »

Editors, Cash Machine Tabs (ver.1)

Artists:  A B C D E F G H I J K L M N O P Q R S T U V W X Y Z # 

Cash Machine Tabs (ver.1)

Editors Tabs
 Rating:
4/5 (5 votes)
Cash Machine lessons Tabs too difficult? Try these video lessons and learn fast
                -------------------------------------------------------------------------------
                             SONG NAME: Cash Machine - Band Name: Editors
-------------------------------------------------------------------------------


This is a great song on their brilliant debut album. I'm pretty sure this is the
correct tab. It's pretty easy so have fun!


Tuning: Standard


Order of song:
Verse
Chorus
Verse
Chorus
Verse
Chorus


Verse 1:-

e|--5------5--5-5-------7-----5--5-5--------------5------5--5-5-----------7------7--7-7----------|
B|--5------5--5-5-------7-----7--7-7--------------5------5--5-5-----------7------7--7-7----------|
G|--5------5--5-5-------7-----5--5-5--------------7------7--7-7-----------9------9--9-9----------|
D|--7------7--7-7-------5-----7--7-7--------------7------7--7-7-----------9------9--9-9-----X2---|
A|------------------------------------------------5------5--5-5-----------7------7--7-7----------|
E|-----------------------------------------------------------------------------------------------|
   

Am
Go to a cash machine
Am
To get a ticket home
Dm
Message on the screen
Em
Says don't make plans, you're broke
Am
No, no this can't be right
Am
I know that time is tight
Dm
I've only just been paid
Em
Three weeks five days, til I'm seen
Dm
Right...
Em
No...  
     
Chorus:-

e|--5----5-5-x-------5---5-5-x-----7---7-7-x------------------------------------------------|
B|--5----5-5-x-------5---5-5-x-----7---7-7-x------------------------------------------------|
G|--5----5-5-x(X2)---7---7-7-x-----9---9-9-x------------------------------------------------|
D|--7----7-7-x-------7---7-7-x-----9---9-9-x-------------X2---------------------------------|
A|-------------------5---5-5-x-----7---7-7-x------------------------------------------------|
E|------------------------------------------------------------------------------------------|

Am
I scratch a living, it ain't easy
Am
You know it's a drag
Dm
I'm always paying, never making
Em
But you can't look back
Am
I wonder if I'll ever get
Am
To where I want to be
Dm
Better believe it
Em
I'm working for the cash machine
            
Submit corrections

comments powered by Disqus
↑ Back to top | Editors Tabs for Cash Machine. Lyrics for acoustic guitar and electric guitar. Tablatures and chords are parodies/interpretations of the original songs. You may use it for private study, scholarship, research or language learning purposes only