» » »

Editors, Bullets Tabs (ver.2)

Artists:  A B C D E F G H I J K L M N O P Q R S T U V W X Y Z # 

Bullets Tabs (ver.2)

Editors Tabs
 Rating:
4.6/5 (9 votes)
Bullets lessons Tabs too difficult? Try these video lessons and learn fast
1
                -------------------------------------------------------------------------------
                             BULLETS - Editors
----------------------------------------------------------------------------
this is a great and easy song, excellent for beginners...


INTRO:(0:00-0:15)
e|-14-14-14-16-16-16-11-11-11-12-12-12-------|
B|-------------------------------------------| 
G|-------------------------------------------|  x4 
D|-------------------------------------------|
A|-------------------------------------------|
E|-------------------------------------------|



(0:16-0:31)
Bass mostly, no guitar 
"If something has to change..."



(0:31-0:45):
"You don't need this disease..."
Guitar 1:
e|----------------------------------|
B|--7-7-7-7-7-7-7-7-7-7-7-7-7-7-7-7-|
G|--4-4-4-4-4-4-4-4-4-4-4-4-4-4-4-4-|  x2
D|----------------------------------|
A|----------------------------------|
E|----------------------------------|

Guitar 2:
e|---------------------------------|
B|---------------------------------|
G|---------------------------------|  x2
D|-13(x8)-9(x8)-11(x16)------------|
A|---------------------------------|
E|---------------------------------|



(0:45-0:59): Chorus
"You don't need this disease..."

e|-14-14-14-16-16-16-11-11-11-12-12-12-------|
B|-------------------------------------------| 
G|-------------------------------------------|  x4 
D|-------------------------------------------|
A|-------------------------------------------|
E|-------------------------------------------|



(1:00-1:15)
"If something has to give..."

Guitar 1:
e|----------------------------------|
B|--7-7-7-7-7-7-7-7-7-7-7-7-7-7-7-7-|
G|--4-4-4-4-4-4-4-4-4-4-4-4-4-4-4-4-|  x2
D|----------------------------------|
A|----------------------------------|
E|----------------------------------|

Guitar 2: nothing



(1:15-1:30)
"You don't need this disease..."

Guitar 1:
e|----------------------------------|
B|--7-7-7-7-7-7-7-7-7-7-7-7-7-7-7-7-|
G|--4-4-4-4-4-4-4-4-4-4-4-4-4-4-4-4-|  x2
D|----------------------------------|
A|----------------------------------|
E|----------------------------------|

Guitar 2:
e|---------------------------------|
B|---------------------------------|
G|---------------------------------|  x2
D|-13(x8)-9(x8)-11(x16)------------|
A|---------------------------------|
E|---------------------------------|



(1:30-1:45): chorus
"You don't need this disease..."

e|-14-14-14-16-16-16-11-11-11-12-12-12-------|
B|-------------------------------------------| 
G|-------------------------------------------|  x4 
D|-------------------------------------------|
A|-------------------------------------------|
E|-------------------------------------------|



(1:45-2:06):

Guitar 1:
e|-------7---7---7---7---11---11---11---11---|
B|----9---9---9---9---9----9----9----9-------|
G|-------------------------------------------| x6
D|-------------------------------------------|
A|-------------------------------------------|
E|-------------------------------------------|

Guitar 2: (only from 2:01-2:07):
|--------------------------------------------|
B|---7---7---7---7---------------------------|
G|-------------------------------------------| x2
D|-------------------------------------------|
A|-------------------------------------------|
E|-------------------------------------------|



(2:06-2:21):
"Would you faaaaaaaaaaall down?"

e|----------------------------------|
B|--7-7-7-7-7-7-7-7-7-7-7-7-7-7-7-7-|
G|--4-4-4-4-4-4-4-4-4-4-4-4-4-4-4-4-|  x2
D|----------------------------------|
A|----------------------------------|
E|----------------------------------|



(2:21-2:31): chorus
"You don't need this disease..."

e|-14-14-14-16-16-16-11-11-11-12-12-12-------|
B|-------------------------------------------| 
G|-------------------------------------------|  x2
D|-------------------------------------------|
A|-------------------------------------------|
E|-------------------------------------------|

(2:31-2:34)
e|----------------------------------------------------|
B|---16-16-16-17-17-17-12-12-14-14-14-12-12-12-14-14--|
G|----------------------------------------------------|
D|----------------------------------------------------|
A|----------------------------------------------------|
E|----------------------------------------------------|

(2:35-2:45)
e|-14-14-14-16-16-16-11-11-11-12-12-12-------|
B|-------------------------------------------| 
G|-------------------------------------------|  x3
D|-------------------------------------------|
A|-------------------------------------------|
E|-------------------------------------------|

(2:45-2:49)
e|----------------------------------------------------|
B|---16-16-16-17-17-17-12-12-14-14-14-12-12-12-14-14--|
G|----------------------------------------------------|
D|----------------------------------------------------|
A|----------------------------------------------------|
E|----------------------------------------------------|

(2:49-3:00)
e|-14-14-14-16-16-16-11-11-11-12-12-12-------|
B|-------------------------------------------| 
G|-------------------------------------------|  x3
D|-------------------------------------------|
A|-------------------------------------------|
E|-------------------------------------------|

(3:00-3:04)
e|----------------------------------------------------|
B|---16-16-16-17-17-17-12-12-14-14-14-12-12-12-14-14--|
G|----------------------------------------------------|
D|----------------------------------------------------|
A|----------------------------------------------------|
E|----------------------------------------------------|

(3:04-3:08)
e|-14-14-14-16-16-16-11-11-11-12-12-12-------|
B|-------------------------------------------| 
G|-------------------------------------------| 
D|-------------------------------------------|
A|-------------------------------------------|
E|-------------------------------------------|
            
Submit corrections

comments powered by Disqus
↑ Back to top | Editors Tabs for Bullets. Lyrics for acoustic guitar and electric guitar. 1 Tablatures and chords are parodies/interpretations of the original songs. You may use it for private study, scholarship, research or language learning purposes only