» » »

Bullets Bass tabs (ver.1)

Artists:  A B C D E F G H I J K L M N O P Q R S T U V W X Y Z # 

Bullets Bass tabs (ver.1)

Editors
Rating:
5/5 (2 votes)

Hard to play? Try these video lessons and learn fast.
                Editors – Bullets (Album Version)
Bassist: Russell Leetch

Intro: 
G|---------------------------------|
D|---------------------------------|
A|---------------------------------|
E|-7-7-7-9-9-9\-4-4-5-5-5-4-4-4-5-5| X4

Verse
G|-----------------------------------------------------------------|
D|-----------------------------------------------------------------|
A|-----------------------------------------------------------------|
E|-7-7-7-7-7-7-7-7\-4-4-4-4-4-4-4-4-5-5-5-5-5-5-5-5-5-5-5-5-5-5-5-5| X4

Chorus
G|---------------------------------|
D|---------------------------------|
A|---------------------------------|
E|-7-7-7-9-9-9\-4-4-5-5-5-4-4-4-5-5| X4

Verse
G|-----------------------------------------------------------------|
D|-----------------------------------------------------------------|
A|-----------------------------------------------------------------|
E|-7-7-7-7-7-7-7-7\-4-4-4-4-4-4-4-4-5-5-5-5-5-5-5-5-5-5-5-5-5-5-5-5| X4

Chorus
G|---------------------------------|
D|---------------------------------|
A|---------------------------------|
E|-7-7-7-9-9-9\-4-4-5-5-5-4-4-4-5-5| X4

Bass guitar break at 1:45

Bridge: Join back in at 1:53
G|----------------|
D|----------------|
A|-------------7-7|
E|-4-4-4-5-5-5----| X8

Verse
G|-----------------------------------------------------------------|
D|-----------------------------------------------------------------|
A|-----------------------------------------------------------------|
E|-7-7-7-7-7-7-7-7\-4-4-4-4-4-4-4-4-5-5-5-5-5-5-5-5-5-5-5-5-5-5-5-5| X2

Chorus
G|---------------------------------|
D|---------------------------------|
A|---------------------------------|
E|-7-7-7-9-9-9\-4-4-5-5-5-4-4-4-5-5| X8

Outro
G|------------------------------------|
D|-9-9-9-11-11-11\-6-6-7-7-7-6-6-6-7-7|
A|------------------------------------|
E|------------------------------------| X4
            
Hard to play? Try these video lessons and learn fast. | Correct




comments powered by Disqus
↑ Back to top | Tablatures and chords are parodies/interpretations of the original songs. You may use it for private study, scholarship, research or language learning purposes only