» » »

Editors, Bones Bass tabs (ver.2)

Artists:  A B C D E F G H I J K L M N O P Q R S T U V W X Y Z # 

Bones Bass tabs (ver.2)

Editors Tabs
Rating:
4/5 (1 vote)
Bones lessons Tabs too difficult? Try these video lessons and learn fast
                Editors – Bones

Intro x2

G|---------------222------222------222-|
D|-------4444--------------------------|
A|-55555-----4444----22222----22222----|
E|-------------------------------------|

Verse

G|----------------4444444444444444---------------------------------|
D|--------44444444-------------------------44444444----------------|
A|55555555-------------------------55555555--------2222222222222222|
E|-----------------------------------------------------------------|

Intro x2

Chorus x2

G|-------------97-----------------|
D|-------9(x12)--97-11(x16)-------|
A|-7(x16)------------------7(x16)-|
E|--------------------------------|

Intro x2
Verse
Intro x2
Chorus x2

Bridge x2

G|------------------------------|
D|---------------4(x16)-2(x16)--|
A|-5(x16)-4(x16)----------------|
E|------------------------------|

Intro x4
Short break
Intro x8 (until the end)
            
Submit corrections

comments powered by Disqus
↑ Back to top | Editors Bass for Bones. Lyrics for acoustic guitar and electric guitar. Tablatures and chords are parodies/interpretations of the original songs. You may use it for private study, scholarship, research or language learning purposes only