>
 >
Bones

Bones Guitar Tabs

Editors - Bones chords, tabs, tablatures, lyrics

Guitar lessons | Add/correct | Request | Top 50 tabs Artists:  A B C D E F G H I J K L M N O P Q R S T U V W X Y Z 0-9

Bones Guitar Tabs – Editors

CD, Sheet music, Poster

Do you like Bones? Share with your friends now
Bass TabsBass Tabs v2ChordsChords v2TabsUkulele
Editors - Bones - Guitar Tabs



Song from the new album An End Has A Start.
There are 2 similar main riff (A & C). I'm sure about the melody.


Here is the song's structure :
==============================

A x4          (intro, main riff)

Nothing x1    (How come you're always...)
B x2          (Retreat ! Retreat !...)

C x2          (In the end...)
A x2          (main riff)

Nothing x1    (A system's put in place...)
B x2          (Retreat ! Retreat !...)

C x2          (In the end...)

D x4          (Boooooones !)
E x4          (Boooooones !)

F x4          (I watch as your eyes...)



********************************
  A (intro)
********************************

E||-----------------------------------|----------12--12--12--12--12--12--|
B||---12--12--12--12--12--12--12--10--|--10--10--------------------------|
G||*----------------------------------|----------------------------------|
D||*----------------------------------|----------------------------------|
A||-----------------------------------|----------------------------------|
E||-----------------------------------|----------------------------------|

E||---12--9--------------------------|-----------------------------------||
B||----------10----------------------|-----------------------------------||
G||*-------------11--11--11--11--11--|--11--11--11--11--11--11--11--11--*||
D||*---------------------------------|----------------------------------*||
A||----------------------------------|-----------------------------------||
E||----------------------------------|-----------------------------------||



********************************
  B (Retreat ! Retreat !...)
********************************

E||----9------9------9------9-----|---9------9------9--12--12--12--|
B||---10-----10-----10-----10-----|--10-----10-----10--10--10--10--|
G||*--11-----11-----11-----11-----|--11-----11-----11--11--11--11--|
D||*------------------------------|--------------------------------|
A||-------------------------------|--------------------------------|
E||-------------------------------|--------------------------------|


E||---2-----2-----2--2--2--2--|--2-----2-----2--2--2--2--|
B||---3-----3-----3--3--3--3--|--3-----3-----3--3--3--3--|
G||*--4-----4-----4--4--4--4--|--4-----4-----4--4--4--4--|
D||*--------------------------|--------------------------|
A||---------------------------|--------------------------|
E||---------------------------|--------------------------|

********************************
  C 
  similar to main riff but not the same times "12" @ the beginning
  i'm sure about it.
********************************

E||-----------------------------------|----------12--12--12--12--12--12--|
B||---12--12--12--10--10--10--10--10--|--10--10--------------------------|
G||*----------------------------------|----------------------------------|
D||*----------------------------------|----------------------------------|
A||-----------------------------------|----------------------------------|
E||-----------------------------------|----------------------------------|

E||---12--9--------------------------|-----------------------------------||
B||----------10----------------------|-----------------------------------||
G||*-------------11--11--11--11--11--|--11--11--11--11--11--11--11--11--*||
D||*---------------------------------|----------------------------------*||
A||----------------------------------|-----------------------------------||
E||----------------------------------|-----------------------------------||

E||-----------------------------------|----------12--12--12--12--12--12--|
B||---12--12--12--10--10--10--10--10--|--10--10--------------------------|
G||*----------------------------------|----------------------------------|
D||*----------------------------------|----------------------------------|
A||-----------------------------------|----------------------------------|
E||-----------------------------------|----------------------------------|

E||---12--9--------------------------|-----------------------------------||
B||----------10----------------------|-----------------------------------||
G||*-------------13--13--13--13--13--|--13--13--13--13--13--13--13--13--*||
D||*---------------------------------|----------------------------------*||
A||----------------------------------|-----------------------------------||
E||----------------------------------|-----------------------------------||


********************************
  D (play trill)
********************************

E||---19--|--17--|--16--|--12--|
B||-------|------|------|------|
G||*------|------|------|------|
D||*------|------|------|------|
A||-------|------|------|------|
E||-------|------|------|------|


********************************
  E (seems like that)
********************************

E||---12--10--9----------12--10--9--|
B||--------------12--10-------------|
G||*--------------------------------|
D||*--------------------------------|
A||---------------------------------|
E||---------------------------------|


********************************
  F (play trill)
********************************

E||-------|------|------|---------------------|------|------|------|
B||---14--|--14--|--12--|--17--15--14-12--10--|--10--|--9---|--12--|
G||*------|------|------|---------------------|------|------|------|
D||*------|------|------|---------------------|------|------|------|
A||-------|------|------|---------------------|------|------|------|
E||-------|------|------|---------------------|------|------|------|


****************************************************************





Comments


Popular Editors tabs & chords
An End Has A Start Bass Tabs
Bones 1 Bass Tabs
Fingers In The Factories 2 Bass Tabs
Escape The Nest Chords
Munich 3 Chords
No Sound But The Wind 1 Chords
Racing Rats 2 Chords
I Buried The DevilIntro Tabs
Lights Tabs
Papillon 4 Tabs


Song lyrics



↑ Back to top | Tablatures and chords are parodies/interpretations of the original songs. You may use it for private study, scholarship, research or language learning purposes only
© 2014 AZChords.com Contact us | Privacy policy | DMCA | Add/correct tabs | Request tabs | Top 50 tabs