» » »

An End Has A Start Tabs (ver.4)

Artists:  A B C D E F G H I J K L M N O P Q R S T U V W X Y Z # 

An End Has A Start Tabs (ver.4)

Editors
Rating:
5/5 (1 vote)

Hard to play? Try these video lessons and learn fast.
                sat around for hours trying to get this right so here it is. 
BTW THANKS TO THE PERSON THAT ORIGINALLY TABBED THE LEAD.

LEAD-STANDARD TUNING
INTRO

e   --------------------------------------------------|
B   -------------------------------------9---10-------|
G   11----------9--------11---9------------------9----|
D   -------11--------9--------------------------------|
A   --------------------------------------------------|
E   --------------------------------------------------|

VERSE

e   9----12---9----12---9----12---9----12-|
B   10---10---10---10---10---10---10---10-|
G   9----11---9----11---9----11---9----11-|
D   --------------------------------------|
A   --------------------------------------|
E   --------------------------------------|

PRE-CHORUS (8 plucks of each)

e   17---16---17---14---17---16---17---14---17---16-|
B   ------------------------------------------------|
G   ------------------------------------------------|
D   ------------------------------------------------|
A   ------------------------------------------------|
E   ------------------------------------------------|

CHORUS

e  --------------16---12---14---9---7---|
B  2---5---9----------------------------|
G  -------------------------------------|
D  -------------------------------------|
A  -------------------------------------|
E  -------------------------------------|

second bit of chorus and played during pause
e   21---19---21---16---16---12---14---9---7-|
B   -----------------------------------------|
G   -----------------------------------------|
D   -----------------------------------------|
A   -----------------------------------------|
E   -----------------------------------------|

BRIDGE (TREMOLO)

e   ---------------------------------|
B   ---------------------------------|
G   ---------------6---4-------9-----|
D   4---6---7-------------6----------|
A   ---------------------------------|
E   ---------------------------------|

e   ---------------------------------|
B   ---------------------------------|
G   ---------------6---4-------9-----|
D   4---6---7------------------------|
A   ---------------------------------|
E   ---------------------------------|

RHYTHM=STANDARD CAPO2 ALL NOTES RELATIVE TO CAPO

intro x2

e   ------------------------|-----------------------|
B   ------------------------|-----------------------|
G   11-11-11-11-11-11-11-11-|11-11-11-11-11-11-11-11|
D   9--9--9--9--9--9--9--9--|-----------------------|
A   ------------------------|9--9--9--9--9--9--9--9-|
E   ------------------------|-----------------------|

e   ------------------------|-----------------------|
B   ------------------------|-----------------------|
G   11-11-11-11-11-11-11-11-|11-11-11-11-11-11-11-11|
D   ------------------------|-----------------------|
A   0--0--0--0--0--0--0--0--|0--0--0--0--0--0--0--0-|
E   10-10-10-10-10-10-10-10-|10-10-10-10-10-10-10-10|

verse= no rhythm

prechorusx2

e   ------------------------|-----------------------|
B   3-3-3-3-3-3-3-3-3-3-3-3-|1-1-1-1-1-1-1-1-1-1-1-1|
G   0-0-0-0-0-0-0-0-0-0-0-0-|2-2-2-2-2-2-2-2-2-2-2-2|
D   4-4-4-4-4-4-4-4-4-4-4-4-|2-2-2-2-2-2-2-2-2-2-2-2|
A   5-5-5-5-5-5-5-5-5-5-5-5-|0-0-0-0-0-0-0-0-0-0-0-0|
E   ------------------------|-----------------------|


e   ------------------------|-----------------------|
B   1-1-1-1-1-1-1-1-1-1-1-1-|-----------------------|
G   0-0-0-0-0-0-0-0-0-0-0-0-|-----------------------|
D   2-2-2-2-2-2-2-2-2-2-2-2-|5-5-5-5-5-5-5-5-5-5-5-5|
A   3-3-3-3-3-3-3-3-3-3-3-3-|7-7-7-7-7-7-7-7-7-7-7-7|
E   ------------------------|-----------------------|

THEN....

e   ------------------------|
B   3-3-3-3-3-3-3-3-3-3-3-3-|
G   0-0-0-0-0-0-0-0-0-0-0-0-|
D   4-4-4-4-4-4-4-4-4-4-4-4-|
A   5-5-5-5-5-5-5-5-5-5-5-5-|
E   ------------------------|

CHORUS 1ST +3RD TIME PLAY TWICE, 2ND PLAY IT 4 TIMES

e   -----------------------|0-0-0-0-3-3-3-3|
B   1-1-1-1-1-1-1-1-1-1-1-1|0-0-0-0-0-0-0-0|
G   2-2-2-2-2-2-2-2-2-2-2-2|0-0-0-0-0-0-0-0|
D   2-2-2-2-2-2-2-2-2-2-2-2|2-2-2-2-0-0-0-0|
A   0-0-0-0-0-0-0-0-0-0-0-0|2-2-2-2-2-2-2-2|
E   -----------------------|0-0-0-0-3-3-3-3|

e   ------------------------|-----------------------|
B   3-3-3-3-3-3-3-3-3-3-3-3-|3-3-3-3-3-3-3-3-3-3-3-3|
G   0-0-0-0-0-0-0-0-0-0-0-0-|0-0-0-0-0-0-0-0-0-0-0-0|
D   4-4-4-4-4-4-4-4-4-4-4-4-|4-4-4-4-4-4-4-4-4-4-4-4|
A   5-5-5-5-5-5-5-5-5-5-5-5-|5-5-5-5-5-5-5-5-5-5-5-5|
E   ------------------------|-----------------------|

BRIDGE

e   -----------------------|------------------------|
B   1-1-1-1-1-1-1-1-1-1-1-1|------------------------|
G   0-0-0-0-0-0-0-0-0-0-0-0|------------------------|
D   2-2-2-2-2-2-2-2-2-2-2-2|5-5-5-5-5-5-5-5-5-5-5-5-|
A   3-3-3-3-3-3-3-3-3-3-3-3|7-7-7-7-7-7-7-7-7-7-7-7-|
E   -----------------------|------------------------|

e   ------------------------|-----------------------|
B   3-3-3-3-3-3-3-3-3-3-3-3-|-----------------------|
G   0-0-0-0-0-0-0-0-0-0-0-0-|4-4-4-4-4-4-4-4-4-4-4-4|
D   4-4-4-4-4-4-4-4-4-4-4-4-|4-4-4-4-4-4-4-4-4-4-4-4|
A   5-5-5-5-5-5-5-5-5-5-5-5-|2-2-2-2-2-2-2-2-2-2-2-2|
E   ------------------------|-----------------------|

e   -----------------------|------------------------|
B   1-1-1-1-1-1-1-1-1-1-1-1|------------------------|
G   0-0-0-0-0-0-0-0-0-0-0-0|------------------------|
D   2-2-2-2-2-2-2-2-2-2-2-2|5-5-5-5-5-5-5-5-5-5-5-5-|
A   3-3-3-3-3-3-3-3-3-3-3-3|7-7-7-7-7-7-7-7-7-7-7-7-|
E   -----------------------|------------------------|

e   ------------------------|-----------------------|
B   3-3-3-3-3-3-3-3-3-3-3-3-|3-3-3-3-3-3-3-3-3-3-3-3|
G   0-0-0-0-0-0-0-0-0-0-0-0-|0-0-0-0-0-0-0-0-0-0-0-0|
D   4-4-4-4-4-4-4-4-4-4-4-4-|4-4-4-4-4-4-4-4-4-4-4-4|
A   5-5-5-5-5-5-5-5-5-5-5-5-|5-5-5-5-5-5-5-5-5-5-5-5|
E   ------------------------|-----------------------|
            
Hard to play? Try these video lessons and learn fast. | Correct




comments powered by Disqus
↑ Back to top | Tablatures and chords are parodies/interpretations of the original songs. You may use it for private study, scholarship, research or language learning purposes only