» » »

Editors, An End Has A Start Tabs (ver.2)

Artists:  A B C D E F G H I J K L M N O P Q R S T U V W X Y Z # 

An End Has A Start Tabs (ver.2)

Editors Tabs
Rating:
5/5 (6 votes)
An End Has A Start lessons Tabs too difficult? Try these video lessons and learn fast
                No-one tabbed the whole song and i got bored of waiting so I did it my self, listen to 
song for the picking pattern and strumming pattern of the verse:

Intro
e   --------------------------------------------------|
B   -------------------------------------9---10-------|
G   11----------9--------11---9------------------9----|
D   -------11--------9--------------------------------|
A   --------------------------------------------------|
E   --------------------------------------------------|

Verse
e   9----12---9----12---9----12---9----12-|
B   10---10---10---10---10---10---10---10-|
G   9----11---9----11---9----11---9----11-|
D   --------------------------------------|
A   --------------------------------------|
E   --------------------------------------|

Pre-Chorus (8 plucks of each)
e   17---16---17---14---17---16---17---14---17---16-|
B   ------------------------------------------------|
G   ------------------------------------------------|
D   ------------------------------------------------|
A   ------------------------------------------------|
E   ------------------------------------------------|

Chorus
e  --------------16---12---14---9---7---|
B  2---5---9----------------------------|
G  -------------------------------------|
D  -------------------------------------|
A  -------------------------------------|
E  -------------------------------------|

2nd bit of Chorus
e   21---19---21---16---16---12---14---9---7-|
B   -----------------------------------------|
G   -----------------------------------------|
D   -----------------------------------------|
A   -----------------------------------------|
E   -----------------------------------------|

Bridge (Tremolo picked)
e   ---------------------------------|
B   ---------------------------------|
G   ---------------6---4-------9-----|
D   4---6---7-------------6----------|
A   ---------------------------------|
E   ---------------------------------|

e   ---------------------------------|
B   ---------------------------------|
G   ---------------6---4-------9-----|
D   4---6---7------------------------|
A   ---------------------------------|
E   ---------------------------------|

Order
Intro x2
Verse
Pre-Chorus
Chorus
Intro x2
Verse
Pre-Chorus
Chorus
2nd bit of Chorus
Bridge x2
Chrous
2nd bit of Chorus
Chorus
Intro till end
            

comments powered by Disqus
↑ Back to top | Editors Tabs for An End Has A Start. Lyrics for acoustic guitar and electric guitar. Tablatures and chords are parodies/interpretations of the original songs. You may use it for private study, scholarship, research or language learning purposes only