» » »

Amant De Saint Jean Tabs (ver.1)

Artists:  A B C D E F G H I J K L M N O P Q R S T U V W X Y Z # 

Amant De Saint Jean Tabs (ver.1)

Edith Piaf
Rating:
0/5 (0 votes)

Hard to play? Try these video lessons and learn fast.
                E|--------------------|------|--------|--------------------|--------|--------|
B|--------------------|------|--------|--------------------|--------|--------|
G|--------------------|-----0|--------|-------------------3|-0-2-3-2|-0------|
D|-0-2-3-3-3-3-3-2-0-3|-2-3--|-3-2-3-0|-0-2-3-3-3-3-3-2-0--|--------|---3-2-0|
A|--------------------|------|--------|--------------------|--------|--------|
E|--------------------|------|--------|--------------------|--------|--------|

E|------------------|----------------|----------|----------|----------------|----------|
B|------------------|----------------|----------|----------|----------------|----------|
G|---2-----2-----2-2|-2-3-3-3-0-2-3-2|----------|----------|---------0---0-2|-2-------2|
D|-0---3-0---3-0----|----------------|-0-2-2-2-2|-2-3-3-3-3|-3-3-2-3---3----|---3-2-0--|
A|------------------|----------------|----------|----------|----------------|----------|
E|------------------|----------------|----------|----------|----------------|----------|

E|--------|------------|----------|--------|--------|
B|--------|-----3-1----|----------|--------|--------|
G|-------3|-2-3-----3-2|-0-----0--|--------|--------|
D|-3-2-0--|------------|---2-3---3|-0-2-3-2|---3-2-0|
A|--------|------------|----------|--------|-4------|
E|--------|------------|----------|--------|--------|

E|--------------------|------|--------|--------------------|--------|--------|
B|--------------------|------|--------|--------------------|--------|--------|
G|--------------------|-----0|--------|-------------------3|-0-2-3-2|-0------|
D|-0-2-3-3-3-3-3-2-0-3|-2-3--|-3-2-3-0|-0-2-3-3-3-3-3-2-0--|--------|---3-2-0|
A|--------------------|------|--------|--------------------|--------|--------|
E|--------------------|------|--------|--------------------|--------|--------|

E|------------------|----------------|----------|----------|----------------|----------|
B|------------------|----------------|----------|----------|----------------|----------|
G|---2-----2-----2-2|-2-3-3-3-0-2-3-2|----------|----------|---------0---0-2|-2-------2|
D|-0---3-0---3-0----|----------------|-0-2-2-2-2|-2-3-3-3-3|-3-3-2-3---3----|---3-2-0--|
A|------------------|----------------|----------|----------|----------------|----------|
E|------------------|----------------|----------|----------|----------------|----------|

E|--------|------------|----------|--------|--------|
B|--------|-----3-1----|----------|--------|--------|
G|-------3|-2-3-----3-2|-0-----0--|--------|--------|
D|-3-2-0--|------------|---2-3---3|-0-2-3-2|---3-2-0|
A|--------|------------|----------|--------|-4------|
E|--------|------------|----------|--------|--------|

E|--------------------|------|--------|--------------------|--------|--------|
B|--------------------|------|--------|--------------------|--------|--------|
G|--------------------|-----0|--------|-------------------3|-0-2-3-2|-0------|
D|-0-2-3-3-3-3-3-2-0-3|-2-3--|-3-2-3-0|-0-2-3-3-3-3-3-2-0--|--------|---3-2-0|
A|--------------------|------|--------|--------------------|--------|--------|
E|--------------------|------|--------|--------------------|--------|--------|

E|------------------|----------------|----------|----------|----------------|----------|
B|------------------|----------------|----------|----------|----------------|----------|
G|---2-----2-----2-2|-2-3-3-3-0-2-3-2|----------|----------|---------0---0-2|-2-------2|
D|-0---3-0---3-0----|----------------|-0-2-2-2-2|-2-3-3-3-3|-3-3-2-3---3----|---3-2-0--|
A|------------------|----------------|----------|----------|----------------|----------|
E|------------------|----------------|----------|----------|----------------|----------|

E|--------|------------|----------|--------|--------|
B|--------|-----3-1----|----------|--------|--------|
G|-------3|-2-3-----3-2|-0-0-2-0--|--------|--------|
D|-3-2-0--|------------|---------3|-0-2-3-2|---3-2-0|
A|--------|------------|----------|--------|-4------|
E|--------|------------|----------|--------|--------|
            
Hard to play? Try these video lessons and learn fast. | Correct




comments powered by Disqus
↑ Back to top | Tablatures and chords are parodies/interpretations of the original songs. You may use it for private study, scholarship, research or language learning purposes only