» » »

Edison Glass, Let Go Tabs (ver.3)

Artists:  A B C D E F G H I J K L M N O P Q R S T U V W X Y Z # 

Let Go Tabs (ver.3)

Edison Glass Tabs
 Rating:
4.4/5 (7 votes)
Let Go lessons Tabs too difficult? Try these video lessons and learn fast
                
Tuning 1/2 step down

Chords:
Am (577555)
Bm (799777)
Em (x79987)
F5 (xx467x)
Bmadd11 (xx12111212)
C (81010988)

Intro:

e|----------------------------7-7----------------------------7-7-7--|
B|-----------------------8----7-7-----------------------8----7-7-7--|
G|-------------------7/9---9--7-7-------------------7/9---9--7-7-7--|
D|-------5---5-7/9-5--------------------5---5-7/9-5-----------------|
A|---5/7---7------------------------5/7---7-------------------------|
E|------------------------------------------------------------------|

x2


Verse:

Am   Bm  F5  Em  F5  Em     F5 Badd11      
Singing sweetly, she passed by me
Am   Bm   F5   Em     
She knew, it seemed
F5          Em            F5        Badd11
That sound, that song was troubling me

Interlude:
(palm mute strums)
Do tell
No, no, no!

(intro lead)
Please, sir
Here we go...

Verse:
Am            Bm
Sleepwalking, sleep, sleepwalking...
F5            Em         
Last night, I awoke to
   F5                  Em
an opera house full of empty seats
F5                        Bmadd11
Performing Einstein on the Beach
Am             Bm
You've stifled this too long 
        F5              Em
and the dream inside is far too strong
F5             Em      Bm               Bmaddll
You've got to, got to, learn to let go. Let go!

Bridge:
Em
Open your lips
Bm
Let out a song
C
Open your head
Am
and let it sing
Em
Open your lips
Bm
Let out a song
C
Open your head
Am         Em
and let it sing

Outro:

e|------------------7-7-----------------7-7-7-------|
B|------------------7-7-----------------7-7-7-------|
G|------------------7-7-----------------7-7-7-------|
D|-------5---7-5--------------5---7-5---------------|
A|---5/7---7-----7--------5/7---7-----7-------------|
E|--------------------------------------------------|

e|------------------7------------------7-7-7--------|
B|------------------7------------------7-7-7--------|
G|------------------7------------------7-7-7--------|
D|-------5---7-5-------------5---7-5----------------|
A|---5/7---7-----7-------5/7---7-----7--------------|
E|--------------------------------------------------|

Hey, let go!
e|--------------------------------------------------|
B|--------------------------------------------------|
G|--------------------------------------------------|
D|-------5---7-5--------------5---7-5---------------|
A|---5/7---7-----7--------5/7---7-----7-7-----------|
E|--------------------------------------------------|

x2

e|---55555555----77777777----12---------------------|
B|---55555555----77777777----12---------------------|
G|---55555555----77777777----12---------------------|
D|--------------------------------------------------|
A|--------------------------------------------------|
E|--------------------------------------------------|
            
Submit corrections

comments powered by Disqus
↑ Back to top | Edison Glass Tabs for Let Go. Lyrics for acoustic guitar and electric guitar. Tablatures and chords are parodies/interpretations of the original songs. You may use it for private study, scholarship, research or language learning purposes only