» » »

Edison Glass, Cold Condition Tabs (ver.1)

Artists:  A B C D E F G H I J K L M N O P Q R S T U V W X Y Z # 

Cold Condition Tabs (ver.1)

Edison Glass Tabs
 Rating:
4/5 (6 votes)
Cold Condition lessons Tabs too difficult? Try these video lessons and learn fast
1
                

Tuning: Standard


Intro:

e|-----------------------------------------------------------------|
B|-----------------------------------------------------------7-----|
G|--9-9--8-8---9-9-9-9-9/11-11--------9-9--8-8---6-6-9-6-9-6-------|
D|--9-9--9-9--------------------------9-9--9-9---7-7-7-7-7-7-------|
A|--7-7--7-7---7-7-7-7-7/9---9--------7-7--7-7---0-0-0-0-0-0-------|
E|--0-0-------------------------------0-0--------------------------|

e|-----------------------------------------------------------------|
B|-----------------------------------------------------------------|
G|--9-9--8-8---9-9-9-9-9/11-11----13-13\11-11----8-8/9-9--9-9------|
D|--9-9--9-9-------------------------------------------------------|
A|--7-7--7-7---7-7-7-7-7/9---9----11-11\9--9-----6-6/7-7--7-7------|
E|--0-0------------------------------------------------------------|

e|-----------------------------------------------------------------|
B|-----------------------------------------------------------7-----|
G|--9-9--8-8---9-9-9-9-9/11-11--------9-9--8-8---6-6-9-6-9-6-------|
D|--9-9--9-9--------------------------9-9--9-9---7-7-7-7-7-7-------|
A|--7-7--7-7---7-7-7-7-7/9---9--------7-7--7-7---0-0-0-0-0-0-------|
E|--0-0-------------------------------0-0--------------------------|

e|-----------------------------------------------------------------|
B|-----------------------------------------------------------------|
G|--9-9--8-8---9-9-9-9-9/11-11---13-13\11-11----8-8/9\6--6-4-------|
D|--9-9--9-9-------------------------------------------------------|
A|--7-7--7-7---7-7-7-7-7/9---9---11-11\9--9-----6-6/7\4--4-2-------|
E|--0-0------------------------------------------------------------|


Verse:

(Rhythm)

   This one thing is for certain, we all need change
   We wrap ourselves in blankets, to stay warm
e|---9---9---9---9---9----------------11--11-11-11-11--------------|
B|---9---9---9---9---9----------------12--12-12-12-13--------------|
G|---9---9---9---9---9---x4-----------13--13-13-13-13----x4--------|
D|--11--11--11--11--11----------------13--13-13-13-13--------------|
A|------------------------------------11--11-11-11-11--------------|
E|-----------------------------------------------------------------|

(Lead)

   Well it's still stinging, I can't feel my toes
   I'm growing numb, I've come undone
   I can't keep out the cold
e|--9------9------12-------------9------12-------------------------|
B|-----9------9-------------9------9--------------------12-----12--|
G|--------9-----9-------------9------9-----------13--------13------|
D|----------------------------------------------------13-----------|
A|-----------------------------------------------------------------|
E|-----------------------------------------------------------------|


Pre-Chorus:

    I don't want to shiver anymore
e|-----------------------------------------------------------------|
B|--5--5--------------7--5--------5--5------------5/7--------------|
G|--------6-4-6-4-----------6----------6-4-6-4---------6-----------|
D|-----------------6----------------------------6----------4-------|
A|-----------------------------------------------------------------|
E|-----------------------------------------------------------------|
    Are we alone?
e|-----------------------------------------------------------------|
B|--9--9--7---7-------9--7-----9-9-9-9-9-9-9-9---------------------|
G|-----------9--9--6--9--8-----------------------8-8-8-8-8-8-8-8---|
D|-----------------------------------------------------------------|
A|-----------------------------------------------------------------|
E|-----------------------------------------------------------------|


Chorus

   We need warmth to come
   In our cold condition we need you to visit us
e|--2-2-2-2-2-2---5-5-5-5-5-5---4-4-4-4-4-4---5-5-5-5-5-5----------|
B|--2-2-2-2-2-2---5-5-5-5-5-5---5-5-5-5-5-5---5-5-5-5-5-5----------|
G|--2-2-2-2-2-2---6-6-6-6-6-6---6-6-6-6-6-6---6-6-6-6-6-6----------|
D|--4-4-4-4-4-4---7-7-7-7-7-7---6-6-6-6-6-6---7-7-7-7-7-7----------|
A|--4-4-4-4-4-4---7-7-7-7-7-7---4-4-4-4-4-4---7-7-7-7-7-7----------|
E|--2-2-2-2-2-2---5-5-5-5-5-5-----------------5-5-5-5-5-5----------|
   Warmth to come
   The fire from inside to burn out all our lives
e|--2-2-2-2-2-2---5-5-5-5-5-5---4-4-4-4-4-4---5-5-5-5-5-5--------------------|
B|--2-2-2-2-2-2---5-5-5-5-5-5---5-5-5-5-5-5---5-5-5-5-5-5--------------------|
G|--2-2-2-2-2-2---6-6-6-6-6-6---6-6-6-6-6-6---6-6-6-6-6-6---9-9-9---11-11-11-|
D|--4-4-4-4-4-4---7-7-7-7-7-7---6-6-6-6-6-6---7-7-7-7-7-7--------------------|
A|--4-4-4-4-4-4---7-7-7-7-7-7---4-4-4-4-4-4---7-7-7-7-7-7---7-7-7---9--9--9--|
E|--2-2-2-2-2-2---5-5-5-5-5-5-----------------5-5-5-5-5-5--------------------|


Intro:

e|-----------------------------------------------------------------|
B|-----------------------------------------------------------7-----|
G|--9-9--8-8---9-9-9-9-9/11-11--------9-9--8-8---6-6-9-6-9-6-------|
D|--9-9--9-9--------------------------9-9--9-9---7-7-7-7-7-7-------|
A|--7-7--7-7---7-7-7-7-7/9---9--------7-7--7-7---0-0-0-0-0-0-------|
E|--0-0-------------------------------0-0--------------------------|

e|-----------------------------------------------------------------|
B|-----------------------------------------------------------------|
G|--9-9--8-8---9-9-9-9-9/11-11---13-13\11-11---8-8/9-9--9-9--------|
D|--9-9--9-9-------------------------------------------------------|
A|--7-7--7-7---7-7-7-7-7/9---9---11-11\9--9----6-6/7-7--7-7--------|
E|--0-0------------------------------------------------------------|

Verse:

    We'll sew our hearts together, love will be our thread
    We'll dance again with no reason and no one will be shunned
e|---9-----------9---9----------------11----------11-11------------|
B|---9-----------9---9----------------12----------12-13------------|
G|---9-----------9---9----------------13----------13-13------------|
D|--11----------11--11----------------13----------13-13------------|
A|------------------------------------11----------11-11------------|
E|-----------------------------------------------------------------|
    And it's this moment we become alive
e|--9------9------12-------11---11--9----9-9-9---11-11-11----------|
B|-----9------9-------9------9------9----9-9-9---9--9--9-----------|
G|--------9-----9-------9------9----9----9-9-9---9--9--9-----------|
D|-----------------------------------------------------------------|
A|-----------------------------------------------------------------|
E|-----------------------------------------------------------------|
   We'll dance again with no reason, and no one will be shunned
e|--------------------------11--11-11-11-11-11-11-11---------------|
B|---9-9-9-9-9-9-9-9--------12--12-12-12-12-12-12-12---------------|
G|---9-9-9-9-9-9-9-9--------13--13-13-13-13-13-13-13---------------|
D|---9-9-9-9-9-9-9-9--------13--13-13-13-13-13-13-13---------------|
A|---7-7-7-7-7-7-7-7--------11--11-11-11-11-11-11-11---------------|
E|---0-0-0-0-0-0-0-0-----------------------------------------------|

Chorus:

   We need warmth to come
   In our cold condition we need you to visit us
e|--2-2-2-2-2-2---5-5-5-5-5-5---4-4-4-4-4-4---5-5-5-5-5-5----------|
B|--2-2-2-2-2-2---5-5-5-5-5-5---5-5-5-5-5-5---5-5-5-5-5-5----------|
G|--2-2-2-2-2-2---6-6-6-6-6-6---6-6-6-6-6-6---6-6-6-6-6-6----------|
D|--4-4-4-4-4-4---7-7-7-7-7-7---6-6-6-6-6-6---7-7-7-7-7-7----------|
A|--4-4-4-4-4-4---7-7-7-7-7-7---4-4-4-4-4-4---7-7-7-7-7-7----------|
E|--2-2-2-2-2-2---5-5-5-5-5-5-----------------5-5-5-5-5-5----------|

    Warmth to come
    The fire from inside to burn out on our lives
e|--2-2-2-2-2-2---5-5-5-5-5-5---4-4-4-4-4-4---5-5-5-5-5-5--------------------|
B|--2-2-2-2-2-2---5-5-5-5-5-5---5-5-5-5-5-5---5-5-5-5-5-5--------------------|
G|--2-2-2-2-2-2---6-6-6-6-6-6---6-6-6-6-6-6---6-6-6-6-6-6---9-9-9---11-11-11-|
D|--4-4-4-4-4-4---7-7-7-7-7-7---6-6-6-6-6-6---7-7-7-7-7-7--------------------|
A|--4-4-4-4-4-4---7-7-7-7-7-7---4-4-4-4-4-4---7-7-7-7-7-7---7-7-7---9--9--9--|
E|--2-2-2-2-2-2---5-5-5-5-5-5-----------------5-5-5-5-5-5--------------------|

Bridge:

   I'll wait for you here
   I want to breathe and let it go; whisper, oh, he'll never know
   We need warmth to come
   In our cold condition we need you to visit
e|----------4--4----------4---4-----------4-------5---4----------4----------|
B|--9-------5--4-5-4-5----4---5---9-------5---9---5---4----------5----------|
G|--9---8---6--6----------4---6---9--8----6---9---6---4---9--8---6----9--11-|
D|--9---9---6--6----------6---6---9--9----6---9---7---6---9--9---6----------|
A|--7---7---4--4----------6---4---7--7----4---7---7---6---7--6---4----7--9--|
E|--0---0-----------------4-------0--0--------0---5---4---0-----------------|

Chorus:

   We need warmth to come
   In our cold condition we need you to visit us
e|--2-2-2-2-2-2---5-5-5-5-5-5---4-4-4-4-4-4---5-5-5-5-5-5----------|
B|--2-2-2-2-2-2---5-5-5-5-5-5---5-5-5-5-5-5---5-5-5-5-5-5----------|
G|--2-2-2-2-2-2---6-6-6-6-6-6---6-6-6-6-6-6---6-6-6-6-6-6----------|
D|--4-4-4-4-4-4---7-7-7-7-7-7---6-6-6-6-6-6---7-7-7-7-7-7----------|
A|--4-4-4-4-4-4---7-7-7-7-7-7---4-4-4-4-4-4---7-7-7-7-7-7----------|
E|--2-2-2-2-2-2---5-5-5-5-5-5-----------------5-5-5-5-5-5----------|
   Warmth to come
   The fire from inside to burn out on our lives
e|--2-2-2-2-2-2---5-5-5-5-5-5---4-4-4-4-4-4---5-5-5-5-5-5----------|
B|--2-2-2-2-2-2---5-5-5-5-5-5---5-5-5-5-5-5---5-5-5-5-5-5----------|
G|--2-2-2-2-2-2---6-6-6-6-6-6---6-6-6-6-6-6---6-6-6-6-6-6----------|
D|--4-4-4-4-4-4---7-7-7-7-7-7---6-6-6-6-6-6---7-7-7-7-7-7----------|
A|--4-4-4-4-4-4---7-7-7-7-7-7---4-4-4-4-4-4---7-7-7-7-7-7----------|
E|--2-2-2-2-2-2---5-5-5-5-5-5-----------------5-5-5-5-5-5----------|
            
Submit corrections

comments powered by Disqus
↑ Back to top | Edison Glass Tabs for Cold Condition. Lyrics for acoustic guitar and electric guitar. 1 Tablatures and chords are parodies/interpretations of the original songs. You may use it for private study, scholarship, research or language learning purposes only