>
 >
The Kingdom

The Kingdom Bass Tabs

Edguy - The Kingdom chords, tabs, tablatures, lyrics

Guitar lessons | Add/correct | Request | Top 50 tabs Artists:  A B C D E F G H I J K L M N O P Q R S T U V W X Y Z 0-9

The Kingdom Bass Tabs – Edguy

CD, Sheet music, Poster

Do you like The Kingdom? Share with your friends now
Bass TabsTabs

THE KINGDOM (Bassline)
As recorded by Edguy
(From the 1997 Album THE KINGDOM)



 Words by Tobias Sammet Music by Edguy

 

Gtr I (E A D G) - 'Bass'
Gtr II (E A D G) - 'Bells'


 Intro
  Q=106
 4/4
  Gtr I
  Wx16
|---------|
|---------|
|---------|
|---------|


 Verse I
   E  E  E  H    E   E E E H    E   Q.   H    E   Q.   H    E
|------------------|--------------|------5------|--------------|
|----------12------|-------8------|-------------|------7-------|
|-10----10---------|-6-5-6--------|-3-----------|-5------------|
|----10------------|--------------|-------------|--------------|


   E  E  E  H    E   E E E H    E   W          W
|------------------|--------------|----------|------|
|----------12------|-------8------|----------|------|
|-10----10---------|-6-5-6--------|-1--------|-8----|
|----10------------|--------------|----------|------|


   E  E  E  H    E   E E E H    E   W          W
|------------------|--------------|----------|------|
|----------12------|-------8------|----------|------|
|-10----10---------|-6-5-6--------|-3--------|-5----|
|----10------------|--------------|----------|------|


   E  E  E  H    E   E E E H    E   W          W
|------------------|--------------|----------|------|
|----------12------|-------8------|----------|------|
|-10----10---------|-6-5-6--------|-1--------|-5----|
|----10------------|--------------|----------|------|


  W          W           E  E  E H    E   E E  E H    E
|----------|----------|-----------------|----------------|
|----------|----------|----------8------|-8-7------------|
|-6--------|-8--------|-10----10--------|-----10-8-------|
|----------|----------|----10-----------|----------------|


 4/4
  W          W            E E E E E E E E
|----------|----------||-------------------||
|----------|----------||o-----------------o||
|-6--------|-8--------||o-5-5-5-5-5-5-5-5-o||
|----------|----------||-------------------||


   Main Riff
    E S S E Q  E Q    +W           E S S E Q  E Q    +W      4x
||------------------|------------|-----------------|---------||
||o-----------------|------------|-----------------|--------o||
||o---------5--6-6--|-(6)--------|---------1-------|--------o||
||--3-3-3-3---------|------------|-3-3-3-3----1-1--|-(1)-----||


    E S S E E e E e E   e E e E e E e E
||--------------------|-----------------|
||o-------------------|-----------------|
||o---------5-5-6-6-6-|-6-6-6-6-6-6-6-6-|
||--3-3-3-3-----------|-----------------|


  E S S E E E E e E   e E e E e E e E
|-------------------|------------------||
|-------------------|-----------------o||
|---------1-1-------|-----------------o||
|-3-3-3-3-----1-1-1-|-1-1-1-1-1-1-1-1--||


   Guitar Solo I
    E S S E E e E e E   e E e E e E e E
||--------------------|-----------------|
||o-------------------|-----------------|
||o---------5-5-6-6-6-|-6-6-6-6-6-6-6-6-|
||--3-3-3-3-----------|-----------------|


  E S S E E E E e E   e E e E e E e E
|-------------------|------------------||
|-------------------|-----------------o||
|---------1-1-------|-----------------o||
|-3-3-3-3-----1-1-1-|-1-1-1-1-1-1-1-1--||


                    H=H
  $
  E E E E E E E E   E E E E S S Q.
|-----------------|------------------|
|-----------------|------------------|
|-----------------|------------------|
|-3-3-3-3-3-3-3-3-|-3-3-3-3-3--------|


   Verses II & III
    Slightly Faster Q=112
    E E S S E E E S S E   E E S S E E E S S E
||----------------------|-----------------------|
||o---------------------|-----------------------|
||o-3-3-3-3-3-3-3-3-3-3-|-3-3-3-3-3-3-3-3-3-3---|
||----------------------|-----------------------|


  E E S S E E E S S E   E E S S E E E S S E         E E S S E E E S S E
|---------------------|----------------------||-||-----------------------|
|---------------------|---------------------o||-||o----------------------|
|-1-1-1-1-1-1-1-1-1-1-|---------------------o||-||o-3-3-3-3-3-3-3-3-3-3--|
|---------------------|-3-3-3-3-3-3-3-3-3-3--||-||-----------------------|


  E E S S E E E S S E   E E S S E E E S S E   E E S S E E E S S E
|---------------------|---------------------|----------------------||
|---------------------|---------------------|---------------------o||
|---------------------|-1-1-1-1-1-1-1-1-1-1-|---------------------o||
|-4-4-4-4-4-4-4-4-4-4-|---------------------|-3-3-3-3-3-3-3-3-3-3--||


   Pre-Chorus
    E E E E E E E E   E E E E E E E E
||------------------|-----------------|
||o-----------------|-----------------|
||o-6-6-6-6-6-6-6-6-|-6-6-6-6-6-6-6-6-|
||------------------|-----------------|


  E E E E E E E E   E E E E E E E E   E E E E E E E E
|-----------------|-----------------|------------------|
|-----------------|-----------------|------------------|
|-----------------|-----------------|------------------|
|-3-3-3-3-3-3-3-3-|-3-3-3-3-3-3-3-3-|-4-4-4-4-4-4-4-4--|


  E E E E E E E E   E E E E E E E E   E E E E E E E E     H    H
|-----------------|-----------------|------------------||-----------|
|-----------------|-----------------|-----------------o||-----------|
|-----------------|-6-6-6-6-6-6-6-6-|-----------------o||-----------|
|-4-4-4-4-4-4-4-4-|-----------------|-6-6-6-6-6-6-6-6--||-4----6----|


 Chorus
  Slower Q=106
   E E E E E E E E   E E E E Q  Q     E E E E E E E E   E E E E E E E E
|------------------|---------------|------------------|------------------|
|------------------|---------------|------------------|---------8-6-5-6--|
|--6-6-6-6-6-6-6-6-|-6-6-6-6-6--8--|------------------|------------------|
|------------------|---------------|--6-6-6-6-6-6-6-6-|-6-6-6-6----------|
|
| Gtr II
|  W                 W                W                 W
|-20---------------|---------------|------------------|------------------|
|------------------|---------------|-20---------------|------------------|
|-18---------------|---------------|------------------|------------------|
|------------------|---------------|-18---------------|------------------|


   E E E E E E E E   E E E E E E E E    E E E E E E E E   E E E E Q  Q
|------------------|-----------------|------------------|----------------|
|------------------|-----------------|------------------|----------------|
|------------------|-----------------|------------------|----------------|
|--1-1-1-1-1-1-1-1-|-1-1-1-1-1-1-1-1-|--6-6-6-6-6-6-6-6-|-6-6-6-6-4--6---|
|
|  W                 W                  W                 W
|-22---------------|-----------------|------------------|----------------|
|------------------|-----------------|-20---------------|----------------|
|-20---------------|-----------------|------------------|----------------|
|------------------|-----------------|-18---------------|----------------|


   E E E E E E E E   E E E E Q  Q     E E E E E E E E   E E E E E E E E
|------------------|---------------|------------------|------------------|
|------------------|---------------|------------------|---------8-6-5-6--|
|--6-6-6-6-6-6-6-6-|-6-6-6-6-6--8--|------------------|------------------|
|------------------|---------------|--6-6-6-6-6-6-6-6-|-6-6-6-6----------|
|
|  W                 W                W                 W
|-20---------------|---------------|------------------|------------------|
|------------------|---------------|-20---------------|------------------|
|-18---------------|---------------|------------------|------------------|
|------------------|---------------|-18---------------|------------------|


                                               To Coda
   E E E E E E E E   E E E E E E E E    E E E E E E E E   E E E E Q  Q
|------------------|-----------------|------------------|----------------|
|------------------|-----------------|------------------|----------------|
|------------------|-----------------|------------------|-6-6-6-6-8------|
|--1-1-1-1-1-1-1-1-|-1-1-1-1-1-1-1-1-|--6-6-6-6-6-6-6-6-|----------------|
|
|  W                 W                  W                 W
|-22---------------|-----------------|------------------|----------------|
|------------------|-----------------|-20---------------|----------------|
|-20---------------|-----------------|------------------|----------------|
|------------------|-----------------|-18---------------|----------------|


   Main Riff
                                             D.S. al Coda
    E S S E Q  E Q    +W           E S S E Q  E Q    +W       4x
||------------------|------------|-----------------|----------||
||o-----------------|------------|-----------------|---------o||
||o---------5--6-6--|-(6)--------|---------1-------|---------o||
||--3-3-3-3---------|------------|-3-3-3-3----1-1--|-(1)------||


 Guitar Solo II
  Q=110
  &
  E H..          S S S S S S S S S S S S S S S S
|-------------||---------------------------------|
|-------------||---------------------------------|
|-------------||-3-3-3-3-3-3-3-3-3-3-3-3-3-3-3-3-|
|-6-----------||---------------------------------|


  S S S S S S S S S S S S S S S S
|----------------------------------|
|----------------------------------|
|----------------------------------|
|-3-3-3-3-3-3-3-3-3-3-4-4-6-6-3-3--|


  S S S S S S S S S S S S S S S S   S S S S S S S S S S S S S S S S
|---------------------------------|---------------------------------|
|---------------------------------|---------------------------------|
|-6-6-6-6-6-6-6-6-6-6-6-6-5-5-----|---------------------------------|
|-----------------------------6-6-|-3-3-3-3-3-3-3-3-3-3-4-4-6-6-3-3-|


  S S S S S S S S S S S S S S S S
|------------------------------------|
|------------------------------------|
|-3-3-3-3-3-3-3-3-3-3-3-3-3-3-3-3----|
|------------------------------------|


  S S S S S S S S S S S S S S S S   S S S S S S S S S S S S S S S S
|---------------------------------|---------------------------------|
|---------------------------------|---------------------------------|
|---------------------------------|-6-6-6-6-6-6-6-6-6-6-5-5-3-3-5-5-|
|-3-3-3-3-3-3-3-3-3-3-3-3-3-3-3-3-|---------------------------------|


  S S S S S S S S S S S S S S S S
|------------------------------------|
|------------------------------------|
|------------------------------------|
|-3-3-3-3-3-3-3-3-3-3-4-4-6-6-3-3----|


  S S S S S S S S S S S S S S S S   S S S S S S S S S S S S S S S S
|---------------------------------|---------------------------------|
|---------------------------------|---------------------------------|
|-3-3-3-3-3-3-3-3-3-3-3-3-3-3-3-3-|---------------------------------|
|---------------------------------|-3-3-3-3-3-3-3-3-3-3-3-3-4-4-6-6-|


  S S S S S S S S S S S S S S S S
|------------------------------------|
|------------------------------------|
|-6-6-6-6-6-6-6-6-6-6-5-5-3-3-5-5----|
|------------------------------------|


  S S S S S S S S S S S S S S S S   S S S S S S S S S S S S S S S S
|---------------------------------|---------------------------------|
|---------------------------------|---------------------------------|
|---------------------------------|-3-3-3-3-3-3-3-3-3-3-3-3-3-3-3-3-|
|-3-3-3-3-3-3-3-3-3-3-4-4-6-6-3-3-|---------------------------------|


  S S S S S S S S S S S S S S S S
|------------------------------------|
|------------------------------------|
|-----------------------------3-3----|
|-3-3-3-3-3-3-3-3-3-3-4-4-6-6--------|


  S S S S S S S S S S S S S S S S
|---------------------------------|
|---------------------------------|
|-6-6-6-6-6-6-6-6-8-8-6-6-5-5-6-6-|
|---------------------------------|


  S S S S S S S S E E E E   W            +W
|-------------------------|----------||----------||
|-------------------------|----------||o--------o||
|-----------------------3-|-3--------||o-(3)----o||
|-3-3-3-3-3-3-3-3-3-4-6---|----------||----------||


 Interlude
  Wx25
|---------|
|---------|
|---------|
|---------|


  Q=135
  W          +W           W          +W           W          +W
|----------|------------|----------|------------|----------|--------|
|----------|------------|----------|------------|----------|--------|
|-3--------|-(3)--------|----------|------------|----------|--------|
|----------|------------|-4--------|-(4)--------|-6--------|-(6)----|


  W          E E E E E E E E   E E E E E E E E   E E E E E E E E
|----------|-----------------|-----------------|------------------|
|----------|-5-3-----3-------|-----------------|-5-3-----3--------|
|----------|-----6-5---6-5-1-|-3-3-3-3-3-3-3-3-|-----6-5---6-5-1--|
|-3--------|-----------------|-----------------|------------------|


  E E E E E E E E   E E E E E E E E   E E E E E E E E   E E E E E E E E
|-----------------|-----------------|-----------------|------------------|
|-----------------|-----------------|-----------------|------------------|
|-----------------|-----------------|-----------------|------------------|
|-4-4-4-4-4-4-4-4-|-4-4-4-4-4-4-4-4-|-6-6-6-6-6-6-6-6-|-6-6-6-6-6-6-6-6--|


  E E E E E E E E   E E E E E E E E      W
|-----------------|-----------------||-------------|
|-----------------|-5-3-----3-------||o-(5)--------|
|-----------------|-----6-5---6-5---||o--3---------|
|-3-3-3-3-3-3-3-3-|---------------3-||-------------|


                Drums Fill
  +W             E H..         Wx3
|-------------||-------------|--------|
|-(5)--------o||-------------|--------|
|-(3)--------o||-3-----------|--------|
|-------------||-------------|--------|


   Guitar Break
    E E E E E E E E a   E E E E E E E E   E E E E E E E E   E E E E E E E E
||--------------------|-----------------|-----------------|------------------|
||o-------------------|-----------------|-----------------|-------3-5-6-5-3--|
||o-------------------|-----------------|-3-3-3-3-3-3-3-3-|-3-5-6------------|
||--1-1-1-1-1-1-1-1-0h|=1-1-1-1-1-1-1-1-|-----------------|------------------|


  E E E E E E E E   E E E E E E E E   E E E E E E E E   E E E E E E E E
|-----------------|-----------------|-----------------|-------------------||
|-----------------|-8-6-5---6-5-----|-----------------|-----0-1-3-1-0----o||
|-6-6-6-6-6-6-6-6-|-------8-----8-6S|=1-1-1-1-1-1-1-1-|-1-3-----------3--o||
|-----------------|-----------------|-----------------|-------------------||


 Keyboard Interlude
              >
  W          +W           Wx30
|----------|------------|---------|
|----------|------------|---------|
|----------|------------|---------|
|-1--------|-(1)--------|---------|


   Guitar Solo III
    W          +H     E E Q    W          +H     E E Q    W
||-----------|---------------|----------|---------------|------|
||o----------|---------------|----------|---------------|------|
||o----------|---------------|-4--------|-(4)----4-3-1--|------|
||--1--------|-(1)----1-3-4--|----------|---------------|-4----|


                                                  Verse IV
  +H     E E Q    W          +H     E E Q          H    H      H    E E Q
|---------------|----------|----------------||-||------------|-------------|
|---------------|----------|---------------o||-||o-----------|-------------|
|----------3-4--|-6--------|-(6)----6-4-3--o||-||o-----------|-------------|
|-(4)----4------|----------|----------------||-||--1----1----|-1----1-3-4--|


  1.
  H    H      H    E E Q    H..       E
|-----------|-------------|-------------|
|-----------|-------------|-------------|
|-4----4----|-4----4-3-1--|-------------|
|-----------|-------------|-4---------1-|


  H    E E Q    H..       E   H    E E Q
|-------------|-------------|--------------||
|-------------|-------------|-------------o||
|--------3-4--|-6-----------|-6----6-4-3--o||
|-4----4------|-----------6-|--------------||


  2.
  H    Q.   E   E E Q  E E Q    H    Q.   E
|-------------|---------------|-------------|
|-------------|---------------|-------------|
|-4----4----3-|-4-3-4--4-3-1--|-------------|
|-------------|---------------|-4----4----1-|


  H    E E Q    H    Q.   E   Q  Q  E E Q
|-------------|-------------|--------------|
|-------------|-------------|--------------|
|--------3-4--|-6----6------|-6--6--6-4-3--|
|-4----4------|-----------6-|--------------|


    E S S S S E E S S S S E   E S S S S E E E Q
||--------------------------|--------------------|
||o-------------------------|--------------------|
||o-------------------------|--------------------|
||--1-1-1-1-1-1-1-1-1-1-1-1-|-1-1-1-1-1-1-1-3-4--|


  E S S S S E E S S S S E   E S S S S E E E E E
|-------------------------|----------------------|
|-------------------------|----------------------|
|-4-4-4-4-4-4-4-4-4-4-4-4-|-4-4-4-4-4-4-4-3-1-3--|
|-------------------------|----------------------|


  E S S S S E E S S S S E   E S S S S E E E E E
|-------------------------|---------------------|
|-------------------------|---------------------|
|-------------------------|---------------3-4---|
|-4-4-4-4-4-4-4-4-4-4-4-4-|-4-4-4-4-4-4-4-----4-|


  E S S S S E E S S S S E   E S S S S E E E E E
|-------------------------|-------------------------||
|-------------------------|------------------------o||
|-6-6-6-6-6-6-6-6-6-6-6-6-|-6-6-6-6-6-6-6-4-3-4\---o||
|-------------------------|-------------------------||


 Breakdown
  W            +W          4x E E E E E E E E
|----------||--------------||------------------|
|----------||o------------o||-3-3-3-3-3-3-3-3\-|
|----------||o------------o||------------------|
|-1--------||--(1)---------||------------------|


    S S S S S S S S S S S S S S S S    4x
||-------------------------------------||
||o-----------------------------------o||
||o-----------------------------------o||
||--1-1-1-1-1-1-1-1-1-1-1-1-1-1-1-1----||


   Harmonized Solo
    E S E S S S E S E S E   E S E S E E S E S S S
||------------------------|-----------------------|
||o-----------------------|-----------------------|
||o-------------6-6-6-6-6-|-----------4-4-4-4-4-4-|
||--6-6-6-6-6-6-----------|-4-4-4-4-4-------------|


  E S E S E E S E S E   E S E S E  E E E E
|---------------------|----------------5---|
|---------------------|------------5-8---8-|
|-4-4-4-4-4-----------|-3-3-3-3-3/---------|
|-----------6-6-6-6-6-|--------------------|


  E S E S E E S E S E   E S E S E E S E S E
|---------------------|---------------------|
|---------------------|---------------------|
|---------------------|---------------------|
|-4-4-4-4-4-4-4-4-4-4-|-6-6-6-6-6-6-6-6-6-6-|


  E S E S E E S E S E   E S E S E E E E E
|---------------------|-------------------|
|---------------------|-------------------|
|---------------------|-3-3-3-3-3-3-3-3-3-|
|-3-3-3-3-3-3-3-3-3-3-|-------------------|


  E S E S E E S E S E   E S E S E E S E S E   E S E S E E S E S E
|---------------------|---------------------|-----------------------||
|---------------------|---------------------|----------------------o||
|---------------------|---------------------|----------------------o||
|-4-4-4-4-4-4-4-4-4-4-|-6-6-6-6-6-6-6-6-6-6-|-3-3-3-3-3-3-3-3-3-3/--||


  S S S S S S S S S S S S S S S S   S S S S S S S S S S S S Q
|---------------------------------|------------------------------|
|---------------------------------|------------------------------|
|-3-3-3-3-3-3-3-3-3-3-3-3-3-3-3-3-|-3-3-3-3-3-3-3-3-3-3-3-3-3\---|
|---------------------------------|------------------------------|


   Verse V
    S S S S S S S S S S S Q  S   W
||-----------------------------|----------|
||o----------------------------|----------|
||o----------------------------|----------|
||--1-1---1-1---1-1---1-1------|----------|


                              1.,2.,3.,4.,5.,6.,7.
  S S S S S S S S S S S Q  S   H    H     8x
|----------------------------|------------||
|----------------------------|-----------o||
|----------------------------|------6----o||
|-1-1---1-1---1-1---1-1------|-4----------||


  8.
  H    H      E E E E E E E E   E E E E E E E E
|-----------|-----------------|-----------------|
|-----------|-----------------|-----------------|
|-6---------|-----------------|-----------------|
|------6----|-4-4-4-4-4-4-4-4-|-4-4-4-4-4-4-4-3-|


 Verse VI
  W          +H..       E   W          H..       E   W          +H..       E
|----------|--------------|----------|-------------|----------|--------------|
|----------|--------------|----------|-------------|----------|--------------|
|-3--------|-(3)----------|----------|-------------|-3--------|-(3)----------|
|----------|------------3-|-4--------|-6---------3-|----------|------------3-|


  H..       E   H.       Q     E S S E S S E S S E S S
|-------------|--------------|-------------------------|
|-------------|--------------|-------------------------|
|-------------|---------10\--|-3-3-3-3-3-3-3-3-3-3-3-3-|
|-4---------3-|-6------------|-------------------------|


  E S S E S S S S S S S S S S
|------------------------------|
|------------------------------|
|-3-3-3-3-3-3-3-3-3-1-1-1-3-3--|
|------------------------------|


  E S S S S S S S S S S S S S S
|-------------------------------|
|-------------------------------|
|-5-5-5-5-5-5-5-5-5-3-3-5-5-3-3-|
|-------------------------------|


    E S S S S S S S S E E E   E S S S S S S S S E E E
||--------------------------|-------------------------|
||o---------------------0-2-|-3-3-3-3-3-3-3-3-3-5-7-8-|
||o-1-1-1-1-1-1-1-1-1-3-----|-------------------------|
||--------------------------|-------------------------|


  E S S S S S S E S S E S S   E S S S S S S S S E E E
|---------------------------|-------------------------|
|---------------------------|-------------------------|
|---------------------------|-5-5-5-5-5-5-5-5-5-8-7-5-|
|-8-8-8-8-8-8-8-6-6-6-8-8-8-|-------------------------|


 1.
  E S S S S S S S S S S S S S S
|---------------------------------|
|---------------------------------|
|---------------------------------|
|-6-6-6-6-6-6-6-6-6-6-6-6-6-6-6---|


  E S S S S E S S S S S S S S   E. E. Q  E E E   E S S S S S S S S E E E
|-----------------------------|----------------|--------------------------||
|-----------------------------|----------------|-------------------------o||
|-----------------------------|-8--7--5--7-8-7-|-5-5-5-5-5-5-5-5-5-8-7-5-o||
|-8-8-8-8-8-8-8-8-8-8-8-8-8-8-|----------------|--------------------------||


  2.
  E S S S S S S S S E E E   E S S S S E S S S S S S S S
|-------------------------|-----------------------------|
|-------------------------|-----------------------------|
|-------------------8-7-5-|-----------------------------|
|-6-6-6-6-6-6-6-6-6-------|-8-8-8-8-8-8-8-8-8-8-8-8-8-8-|


  E S S S S E S S S S E E
|--------------------------|
|--------------------------|
|---------------------7-8--|
|-8-8-8-8-8-8-8-8-8-8------|


    E S S S S E S S S S S S S S
||------------------------------|
||o-----------------------------|
||o-----------------------------|
||--6-6-6-6-6-6-6-6-6-6-6-6-6-6-|


 1.
  E S S S S E S S S S S S S S   E S S S S E E S S S S S S
|-----------------------------|---------------------------|
|-----------------------------|---------------------------|
|-----------------------------|---------------------------|
|-6-6-6-6-6-6-6-6-6-6-6-6-6-6-|-8-8-8-8-8-8-8-8-8-8-8-8-8-|


                     2.
  E. E. E. E. E E     E. E. E. E. E E
|------------------||-----------------|
|----------5------o||-8--7--5---------|
|-5--7--8-----8-7-o||----------8--7-5-|
|------------------||-----------------|


  E S S S S E E S S S S S S    E. E. E.  E. E E
|---------------------------|--------------------|
|---------------------------|-10--8--7-----------|
|---------------------------|-----------10--8-7--|
|-8-8-8-8-8-8-8-8-8-8-8-8-8-|--------------------|


  >
  W          +W           Wx4
|----------|------------|--------|
|----------|------------|--------|
|-5--------|-(5)--------|--------|
|----------|------------|--------|


   Main Riff Revisited
    E S S E Q  E Q    +W           E S S E Q  E Q    +W      4x
||------------------|------------|-----------------|---------||
||o-----------------|------------|-----------------|--------o||
||o---------5--6-6--|-(6)--------|---------1-------|--------o||
||--3-3-3-3---------|------------|-3-3-3-3----1-1--|-(1)-----||


  W          W          H    H
|----------|----------|-----------|
|----------|----------|-----------|
|----------|----------|-----------|
|-3--------|-3--------|-4----6----|


   Out-Chorus
     E E E E E E E E   E E E E Q  Q     E E E E E E E E   E E E E E E E E
||-------------------|---------------|------------------|-----------------|
||o------------------|---------------|------------------|---------8-6-5-6-|
||o--6-6-6-6-6-6-6-6-|-6-6-6-6-6--8--|------------------|-----------------|
||-------------------|---------------|--6-6-6-6-6-6-6-6-|-6-6-6-6---------|
|
|   Gtr II
|    W                 W                W                 W
||--20---------------|---------------|------------------|-----------------|
||o------------------|---------------|-20---------------|-----------------|
||o-18---------------|---------------|------------------|-----------------|
||-------------------|---------------|-18---------------|-----------------|


   E E E E E E E E   E E E E E E E E    E E E E E E E E   E E E E Q  Q
|------------------|-----------------|------------------|-----------------||
|------------------|-----------------|------------------|----------------o||
|------------------|-----------------|------------------|----------------o||
|--1-1-1-1-1-1-1-1-|-1-1-1-1-1-1-1-1-|--6-6-6-6-6-6-6-6-|-6-6-6-6-4--6----||
|
|  W                 W                  W                 W
|-22---------------|-----------------|------------------|-----------------||
|------------------|-----------------|-20---------------|----------------o||
|-20---------------|-----------------|------------------|----------------o||
|------------------|-----------------|-18---------------|-----------------||


     S S S S S S S S S S S S S S S S   S S S S S S S S Q  Q
||-----------------------------------|-----------------------|
||o----------------------------------|-----------------------|
||o--6-6-6-6-6-6-6-6-6-6-6-6-6-6-6-6-|-6-6-6-6-6-6-6-6-6--8--|
||-----------------------------------|-----------------------|
|
|    W                                 W
||--20-------------------------------|-----------------------|
||o----------------------------------|-----------------------|
||o-18-------------------------------|-----------------------|
||-----------------------------------|-----------------------|


   S S S S S S S S S S S S S S S S
|-------------------------------------|
|-------------------------------------|
|-------------------------------------|
|--6-6-6-6-6-6-6-6-6-6-6-6-6-6-6-6----|
|
|  W
|-------------------------------------|
|-20----------------------------------|
|-------------------------------------|
|-18----------------------------------|


  S S S S S S S S E E E E     S S S S S S S S S S S S S S S S
|--------------------------|----------------------------------|
|-----------------8-6-5-6\-|----------------------------------|
|--------------------------|----------------------------------|
|-6-6-6-6-6-6-6-6----------|--1-1-1-1-1-1-1-1-1-1-1-1-1-1-1-1-|
|
| W                           W
|--------------------------|-22-------------------------------|
|--------------------------|----------------------------------|
|--------------------------|-20-------------------------------|
|--------------------------|----------------------------------|


  S S S S S S S S S S S S S S S S
|---------------------------------|
|---------------------------------|
|---------------------------------|
|-1-1-1-1-1-1-1-1-1-1-1-1-1-1-1-1-|
|
| W
|---------------------------------|
|---------------------------------|
|---------------------------------|
|---------------------------------|


   S S S S S S S S S S S S S S S S
|----------------------------------|
|----------------------------------|
|----------------------------------|
|--6-6-6-6-6-6-6-6-6-6-6-6-6-6-6-6-|
|
|  W
|----------------------------------|
|-20-------------------------------|
|----------------------------------|
|-18-------------------------------|


 1.                           2.
  S S S S S S S S Q  E S S     S S S S S S S S Q   Q
|---------------------------||------------------------|
|--------------------------o||------------------------|
|--------------------------o||-6-6-6-6-6-6-6-6-8\-----|
|-6-6-6-6-6-6-6-6-4--6-6-6--||------------------------|
|
| W                            W
|---------------------------||------------------------|
|--------------------------o||------------------------|
|--------------------------o||------------------------|
|---------------------------||------------------------|


   Outro Riff
    E S S E Q  E Q    +W           E S S E Q  E Q    +W
||------------------|------------|-----------------|---------||
||o-----------------|------------|-----------------|--------o||
||o---------5--6-6--|-(6)--------|---------1-------|--------o||
||--3-3-3-3---------|------------|-3-3-3-3----1-1--|-(1)-----||


 Outro
  W          W          W          W
|----------|----------|----------|----------|
|-5--------|-3--------|----------|----------|
|----------|----------|-6--------|-5--------|
|----------|----------|----------|----------|


  S S S S S S S S S S S S S S S S
|-----------------------------------|
|-----------------------------------|
|-----------------------------------|
|-3-3-3-3-3-3-3-3-3-3-3-3-3-3-3-3---|


  S S S S S S S S S S S S S S E
|-------------------------------|
|-------------------------------|
|---------------------------3-3S|
|-3-3-3-3-3-3-3-3-3-3-3-3-3-----|


   S  S  S  S  S  S  S  S  S  S  S  S  S  S  S  S
|--------------------------------------------------|
|--------------------------------------------------|
|-10-10-10-10-10-10-10-10-10-10-10-10-10-10-10-10--|
|--------------------------------------------------|


   S  S  S  S  S  S  S  S  S  S  S  S  S S  E   H.      E  E
|---------------------------------------------|---------------|
|---------------------------------------------|---------------|
|-10-10-10-10-10-10-10-10-10-10-10-10-10-8----|---------------|
|------------------------------------------10S|=3-------3s15S=|


  H.      E  E   Q  E  E Q  E  E   Q  Q  Q  Q     Q   H.
|--------------|-----------------|-------------|---------------*|
|--------------|-----------------|-------------|---------------*|
|--------------|-----------------|-------------|---------------*|
|-3-------3s15S|=3--3s15S3--3s15S|=3--3--3--3--|--3/-----------*|
|
| Gtr II
| W              W                 W              h       H
|--------------|-----------------|-------------|-24------------*|
|--------------|-----------------|-------------|-24------------*|
|--------------|-----------------|-------------|---------------*|
|--------------|-----------------|-------------|---------------*|




--------------------------------------------------------------------------------


Duration Legend
---------------
W - whole; H - half; Q - quarter; E - 8th; S - 16th; T - 32nd; X - 64th; a - acciaccatura
+ - note tied to previous; . - note dotted; .. - note double dotted
Uncapitalized letters represent notes that are staccato (1/2 duration)
Irregular groupings are notated above the duration line
Duration letters will always appear directly above the note/fret number it represents the
duration for.  Duration letters with no fret number below them represent rests.  Multi-
bar rests are notated in the form Wxn, where n is the number of bars to rest for.  Low
melody durations appear below the staff

Tablature Legend
----------------
 h   - hammer-on
 p   - pull-off
 b   - bend
 pb  - pre-bend
 r   - bend release (if no number after the r, then release immediately)
 /\  - slide into or out of (from/to "nowhere")
 s   - legato slide
 S   - shift slide
 - natural harmonic
[n]  - artificial harmonic
n(n) - tapped harmonic
 ~   - vibrato
 tr  - trill
 T   - tap
 TP  - trem. picking
 PM  - palm muting
\n/  - tremolo bar dip; n = amount to dip
 \n  - tremolo bar down
 n/  - tremolo bar up
/n\  - tremolo bar inverted dip
 =   - hold bend; also acts as connecting device for hammers/pulls
 <> - volume swell (louder/softer)
 x   - on rhythm slash represents muted slash
 o   - on rhythm slash represents single note slash

Misc Legend
-----------
 |  - bar
||  - double bar
||o - repeat start
o|| - repeat end
*|  - double bar (ending)
 :  - bar (freetime)
 $  - Segno
 &  - Coda
Tempo markers -  = BPM(8/16=s8/s16), where s8 = swing 8ths, s16 = swing 16ths





Comments


Popular Edguy tabs & chords
Final Gate Bass Tabs
Babylon Tabs
Fucking With Fire Hair Force One Tabs
Mysteria Tabs
Painting On The Wall Tabs
Vain Glory Opera Tabs
Vainglory Opera Tabs
Wake Up Dreaming Black Tabs
9-2-9 Ukulele
Lavatory Love Machine Ukulele


Song lyrics



↑ Back to top | Tablatures and chords are parodies/interpretations of the original songs. You may use it for private study, scholarship, research or language learning purposes only
© 2014 AZChords.com Contact us | Privacy policy | DMCA | Add/correct tabs | Request tabs | Top 50 tabs