>
 >
Steel Church

Steel Church Guitar Tabs

Edguy - Steel Church chords, tabs, tablatures, lyrics

Guitar lessons | Add/correct | Request | Top 50 tabs Artists:  A B C D E F G H I J K L M N O P Q R S T U V W X Y Z 0-9

Steel Church Guitar Tabs – Edguy

CD, Sheet music, Poster

Do you like Steel Church? Share with your friends now
Tabs

STEEL CHURCH
As recorded by Edguy
(From the 1997 Album THE KINGDOM)



 Words by Tobias Sammet Music by Edguy

 

Gtr I (E A D G B E) - 'Untitled'
Gtr II (E A D G B E) - 'Untitled'
Gtr III (E A D G B E) - 'Untitled'


   Intro
    Q=131
    N.C.(E)
   4/4
    Gtr I
    PM------------------------|       PM--------------------|
    S S S S S S S S S S S S S S S S   S S S S S S S S S S S S E E  4x
||----------------------------------|------------------------------||
||o---------------------------------|-----------------------------o||
||----------------------------------|------------------------------||
||----------------------------------|------------------------------||
||o---------------------------------|---------------------------2-o||
||--0-0-3-0-2h3-0-0-5-0-0-3-0-0-2h3-|-0-0-3-0-2h3-0-0-3-2-2-3-3----||


   Pre-Verse
    $
    $$
    N.C.(E)                                                           G5B5
    PM--------------------------------------------------------------|
    S S  S S S  S S S  S S S  S S S  S S   S  S S S  S S S  S S S S S E E
||---------------------------------------|-----------------------------------|
||o--------------------------------------|-----------------------------------|
||---------------------------------------|-----------------------------------|
||---------------------------------------|------------------------------4----|
||o--------------------------------------|----------------------------5-2----|
||--0-0--0-0-0--0-0-0--0-0-0--0-0-0--0-0-|-0--0-0-0--0-0-0--0-0-0-0-0-3------|
|
|   Gtr II
|   PM--------------------------------------------------------------------|
|   S S  S S S  S S S  S S S  S S S  S S   S  S S S  S S S  S S S S S E S  S
||---------------------------------------|-----------------------------------|
||o--------------------------------------|-----------------------------------|
||---------------------------------------|-----------------------------------|
||---------------------------------------|-----------------------------------|
||o-7-9-10-7-9-10-7-9-10-7-9-10-7-9-10-7-|-9-10-7-9-10-7-9-10-9S7-7S5---7h10-|
||---------------------------------------|----------------------------7------|


  N.C.(E)
  PM------------------------------------
  S S  S S S  S S S  S S S  S S S  S S
|--------------------------------------|
|--------------------------------------|
|--------------------------------------|
|--------------------------------------|
|--------------------------------------|
|-0-0--0-0-0--0-0-0--0-0-0--0-0-0--0-0-|
|
| PM------------------------------------
| S S  S S S  S S S  S S S  S S S  S S
|--------------------------------------|
|--------------------------------------|
|--------------------------------------|
|--------------------------------------|
|-7-9-10-7-9-10-7-9-10-7-9-10-7-9-10-7-|
|--------------------------------------|


                                  G5   B5
 -------------------------------|
  S  S S S  S S S  S S   S    S S E    E
|-------------------------------------------||
|------------------------------------------o||
|-------------------------------------------||
|--------------------------------------4----||
|---------------------------------5----2---o||
|-0--0-0-0--0-0-0--0-0---0----0-0-3---------||
|
|--------------------------------------|
|                    |--3--|
| S  S S S  S S S  S S S   S  S S S  S S S
|-------------------------------------------||
|------------------------------------------o||
|-------------------------------------------||
|--------------------7h9p==7----------------||
|-9-10-7-9-10-7-9-10---------10-9-7-10-9-7-o||
|-------------------------------------------||


   Verse
                         1.
    D5         C5         E
    Gtrs I, II
                          PM----------------------------|
    W          W          S S S S S S S S S S S S S S S S
||-----------|----------|---------------------------------|
||o----------|----------|---------------------------------|
||-----------|----------|---------------------------------|
||--7--------|-5--------|---------------------------------|
||o-5--------|-3--------|---------------------------------|
||-----------|----------|-0---0-0-0-0-0-0-0---0-0-0-0-0-0-|


                                      2.
                                      E
                                      Gtr I
  PM----------------------------|
  S S S S S S S S S S S S S S S S     S S S S S S S S S S S S S S S S
|----------------------------------||-0-0-3-0-2-3-0-0-7-0-0-3-0-0-2-3-|
|---------------------------------o||---------------------------------|
|----------------------------------||---------------------------------|
|----------------------------------||---------------------------------|
|---------------------------------o||---------------------------------|
|-0---0-0-0-0-0-0-0---0-0-0-0-0-0--||---------------------------------|
|
|                                     Gtr II
|                                     PM----------------------------|
| W                                   S S S S S S S S S S S S S S S S
|----------------------------------||---------------------------------|
|---------------------------------o||---------------------------------|
|----------------------------------||---------------------------------|
|----------------------------------||---------------------------------|
|---------------------------------o||---------------------------------|
|----------------------------------||-0-0-0-0-0-0-0-0-0-0-0-0-0-0-0-0-|


                                                                     To Coda
                                                                     To Coda
                                    B5                    C5
                                    Gtrs I, II
                                      PM----|               PM----|
  S S S S S S S S S S S S S S S S   E S S S S E E. E. E   E S S S S E E. E. E
|-0-0-3-0-2-3-0-0-5-0-0-3-0-0-2-3-|---------------------|---------------------|
|---------------------------------|---------------------|---------------------|
|---------------------------------|---------------------|---------------------|
|---------------------------------|-4-------------------|-5-------------------|
|---------------------------------|-2-2-2-2-2-3S5--3--2-|-3-3-3-3-3-5S7--5--3-|
|---------------------------------|---------------------|---------------------|
|
| PM----------------------------|
| S S S S S S S S S S S S S S S S   W                     W
|---------------------------------|---------------------|---------------------|
|---------------------------------|---------------------|---------------------|
|---------------------------------|---------------------|---------------------|
|---------------------------------|---------------------|---------------------|
|---------------------------------|---------------------|---------------------|
|-0-0-0-0-0-0-0-0-0-0-0-0-0-0-0-0-|---------------------|---------------------|


                                      D.S. al Coda
  B5                    C5            D5
    PM----|               PM--------|   PM--------|
  E S S S S E E. E. E   E S S S S S S E S S S S S S
|---------------------|-----------------------------|
|---------------------|-----------------------------|
|---------------------|-----------------------------|
|-4-------------------|-5-------------7-------------|
|-2-2-2-2-2-3S5--3--2-|-3-3-3-3-3-3-3-5-5-5-5-5-5-5-|
|---------------------|-----------------------------|


  &
  B5                    C5                    B5
                                              Gtr I
    PM----|               PM----|               PM----|
  E S S S S E E. E. E   E S S S S E E. E. E   E S S S S E E. E. E
|---------------------|---------------------|---------------------|
|---------------------|---------------------|---------------------|
|---------------------|---------------------|---------------------|
|-4-------------------|-5-------------------|-4-------------------|
|-2-2-2-2-2-3S5--3--2-|-3-3-3-3-3-5S7--5--3-|-2-2-2-2-2-3S5--3--2-|
|---------------------|---------------------|---------------------|
|
|                                             Gtr II
|                                               PM----|
| W                     W                     E S S S S E E. E. E
|---------------------|---------------------|---------------------|
|---------------------|---------------------|---------------------|
|---------------------|---------------------|---------------------|
|---------------------|---------------------|-4---------2S4--2----|
|---------------------|---------------------|-2-2-2-2-2---------5-|
|---------------------|---------------------|---------------------|


                                                            To Dbl. Coda
  C5                    B5                    C5            D5
                                              Gtrs I, II
    PM----|               PM----|               PM--------|   PM--------|
  E S S S S E E. E. E   E S S S S E E. E. E   E S S S S S S E S S S S S S
|---------------------|---------------------|------------------------------|
|---------------------|---------------------|------------------------------|
|---------------------|---------------------|------------------------------|
|-5-------------------|-4-------------------|-5-------------7--------------|
|-3-3-3-3-3-5S7--5--3-|-2-2-2-2-2-3S5--3--2-|-3-3-3-3-3-3-3-5-5-5-5-5-5-5--|
|---------------------|---------------------|------------------------------|
|
|   PM----|               PM----|
| E S S S S E E. E. E   E S S S S E E. E. E   W
|---------------------|---------------------|------------------------------|
|---------------------|---------------------|------------------------------|
|---------------------|---------------------|------------------------------|
|-5---------4S5--4--2-|-4---------2S4--2----|------------------------------|
|-3-3-3-3-3-----------|-2-2-2-2-2---------5-|------------------------------|
|---------------------|---------------------|------------------------------|


   Chorus
                         1.
    E5         C5         G5         D5            Eb5
                                       PM--------|   PM--------|
    W          W          W          E S S S S S S E S S S S S S
||-----------|----------|----------|--------------------------------||
||o----------|----------|----------|-------------------------------o||
||-----------|----------|----------|--------------------------------||
||--2--------|-5--------|----------|-7-------------8----------------||
||o-2--------|-3--------|-5--------|-5-5-5-5-5-5-5-6-6-6-6-6-6-6---o||
||--0--------|----------|-3--------|--------------------------------||


  2.
  A5         B5   C5 D5     E5
                              PM------------------------|
  W          H    Q  Q      E S S S S S S S S S S S S S S
|----------|------------||--------------------------------|
|----------|------------||o-------------------------------|
|----------|------------||--------------------------------|
|-2--------|-4----5--7--||--9-----------------------------|
|-0--------|-2----3--5--||o-7-7-7-7-7-7-7-7-7-7-7-7-7-7-7-|
|----------|------------||--------------------------------|


                                 1.
  C5                              G5
    PM------------------------|     PM------------------------|
  E S S S S S S S S S S S S S S   E S S S S S S S S S S S S S S
|-------------------------------|-------------------------------|
|-------------------------------|-------------------------------|
|-------------------------------|-------------------------------|
|-5-----------------------------|-------------------------------|
|-3-3-3-3-3-3-3-3-3-3-3-3-3-3-3-|-5-----------------------------|
|-------------------------------|-3-3-3-3-3-3-3-3-3-3-3-3-3-3-3-|


  D5            Eb5
    PM--------|   PM--------|
  E S S S S S S E S S S S S S
|-------------------------------||
|------------------------------o||
|-------------------------------||
|-7-------------8---------------||
|-5-5-5-5-5-5-5-6-6-6-6-6-6-6--o||
|-------------------------------||


  2.
                                  D.S.S. al Dbl. Coda
  A5                              B5            C5 D5
  E S S S S S S S S S S S S S S   E S S S S S S Q  Q
|-------------------------------|---------------------|
|-------------------------------|---------------------|
|-------------------------------|---------------------|
|-2-----------------------------|-4-------------5--7--|
|-0-0-0-0-0-0-0-0-0-0-0-0-0-0-0-|-2-2-2-2-2-2-2-3--5--|
|-------------------------------|---------------------|


   Bridge
                                       1.
    &&
    G                 D                 Em7
    Gtr I
    W                 W                 S S S S S S S S S S S S S S S S
||------------------|-----------------|---------------------------------|
||o-----------------|-----------------|---------------------------------|
||------------------|-----------------|---------------------------------|
||------------------|-7---------------|---------------------------------|
||o-5---------------|-5---------------|---------------------------------|
||--3---------------|-----------------|-0-0-0-0-0-0-0-0-0-0-0-0-0-0-0-0-|
|
|   Gtr II
|   E E E E E E E E   E E E E E E E E   Q       E   E   E   E   E   E
||------------------|-----------------|---------------------------------|
||o-----------------|-----------------|---------------------------------|
||--4-----4-----4---|-----------------|---------7-------7---4-------4---|
||----5-----5-----5-|-7-4---7-4---7-4-|---------------------------------|
||o-----------------|-----------------|---------------------------------|
||------------------|-----------------|---------------------------------|


                                      2.
                                      B5         C5   D5
  S S S S S S S S S S S S S S S S     W          H    H
|----------------------------------||----------|-----------|
|---------------------------------o||----------|-----------|
|----------------------------------||----------|-----------|
|----------------------------------||-4--------|-5----7----|
|---------------------------------o||-2--------|-3----5----|
|-0-0-0-0-0-0-0-0-0-0-0-0-0-0-0-0--||----------|-----------|
|
|                                     ~
| Q       E   E   E   E   E   E       W          W
|----------------------------------||----------|-----------|
|---------------------------------o||----------|-----------|
|---------7-------7---4-------7----||-4--------|-----------|
|----------------------------------||----------|-----------|
|---------------------------------o||----------|-----------|
|----------------------------------||----------|-----------|


   Chorus
                         1.
    E5         C5         G5         D5            Eb5
    Gtrs I, II
                                       PM--------|   PM--------|
    W          W          W          E S S S S S S E S S S S S S
||-----------|----------|----------|--------------------------------||
||o----------|----------|----------|-------------------------------o||
||-----------|----------|----------|--------------------------------||
||--2--------|-5--------|----------|-7-------------8----------------||
||o-2--------|-3--------|-5--------|-5-5-5-5-5-5-5-6-6-6-6-6-6-6---o||
||--0--------|----------|-3--------|--------------------------------||


  2.
  A5         B5   C5 D5     E5
                              PM------------------------|
  W          H    Q  Q      E S S S S S S S S S S S S S S
|----------|------------||--------------------------------|
|----------|------------||o-------------------------------|
|----------|------------||--------------------------------|
|-2--------|-4----5--7--||--9-----------------------------|
|-0--------|-2----3--5--||o-7-7-7-7-7-7-7-7-7-7-7-7-7-7-7-|
|----------|------------||--------------------------------|


                                 1.
  C5                              G5
    PM------------------------|     PM------------------------|
  E S S S S S S S S S S S S S S   E S S S S S S S S S S S S S S
|-------------------------------|-------------------------------|
|-------------------------------|-------------------------------|
|-------------------------------|-------------------------------|
|-5-----------------------------|-------------------------------|
|-3-3-3-3-3-3-3-3-3-3-3-3-3-3-3-|-5-----------------------------|
|-------------------------------|-3-3-3-3-3-3-3-3-3-3-3-3-3-3-3-|


  D5            Eb5
    PM--------|   PM--------|
  E S S S S S S E S S S S S S
|-------------------------------||
|------------------------------o||
|-------------------------------||
|-7-------------8---------------||
|-5-5-5-5-5-5-5-6-6-6-6-6-6-6--o||
|-------------------------------||


  2.
  A5                              B5            C5 D5
  E S S S S S S S S S S S S S S   E S S S S S S Q  Q
|-------------------------------|---------------------|
|-------------------------------|---------------------|
|-------------------------------|---------------------|
|-2-----------------------------|-4-------------5--7--|
|-0-0-0-0-0-0-0-0-0-0-0-0-0-0-0-|-2-2-2-2-2-2-2-3--5--|
|-------------------------------|---------------------|


   Interlude
    E5
    Gtr I
    PM------------------------------------------|      ~~~
    E S S S S S S e S S S S S S   e S S S S S S E E E  E   4x
||------------------------------|--------------------------||
||o-----------------------------|-------------------------o||
||------------------------------|--------------------------||
||------------------------------|--------------------------||
||o-2---------------------------|-----------------3-0--2--o||
||--0-0-0-0-0-0-0-0-0-0-0-0-0-0-|-0-0-0-0-0-0-0-0----------||
|
|   Gtr II
|   PM------------------------------------------|      ~~~
|   e S S S S S S e S S S S S S   e S S S S S S E E E  E   4x
||------------------------------|--------------------------||
||o-----------------------------|-------------------------o||
||------------------------------|--------------------------||
||------------------------------|--------------------------||
||o-----------------------------|-----------------7---[6]-o||
||--0-0-0-0-0-0-0-0-0-0-0-0-0-0-|-0-0-0-0-0-0-0-0---8------||


    E5
    PM---------------------------
    E S S S S S S e S S S S S S
||------------------------------|
||o-----------------------------|
||------------------------------|
||------------------------------|
||o-2---------------------------|
||--0-0-0-0-0-0-0-0-0-0-0-0-0-0-|
|
|   PM---------------------------
|   e S S S S S S e S S S S S S
||------------------------------|
||o-----------------------------|
||------------------------------|
||------------------------------|
||o-----------------------------|
||--0-0-0-0-0-0-0-0-0-0-0-0-0-0-|


                  C5A5B5      C5         D5
 ---------------|      ~~~
  e S S S S S S E E E  E   4x W          H.      +Q
|--------------------------||----------|-----------------|
|-------------------------o||----------|-----------------|
|--------------------------||----------|-----------------|
|-----------------5-2--4---||-5--------|-7-------(7)S====|
|-----------------3-0--2--o||-3--------|-5-------(5)-----|
|-0-0-0-0-0-0-0-0----------||----------|-----------------|
|
|---------------|      ~~~
| e S S S S S S E E E  E   4x W          H.       Q
|--------------------------||----------|-----------------|
|-------------------------o||----------|-----------------|
|--------------------------||----------|-----------------|
|--------------------------||-5--------|----------2S=====|
|-----------------7---[6]-o||-3--------|-----------------|
|-0-0-0-0-0-0-0-0---8------||----------|-----------------|


 Guitar Break
  (Em)
                                     >
                                     ~~~
  Q.   Q.   Q    +E  Q.   Q  Q       W           +H.      Q
|--------------|------------------|------------|--------------|
|--------------|-----3-------5b7r=|==5---------|-(5)------5S==|
|------4-------|----------4-------|------------|--------------|
|-2---------2--|-(2)--------------|------------|--------------|
|-2------------|-(2)--------------|-(2)--------|--------------|
|-0------------|-(0)--------------|-(0)--------|--------------|
| W              +W                 +W
|
|                                    ~~~
| Q.   Q.   Q    +E  Q.   Q  Q       W           +H.      Q
|--------------|------------------|------------|--------------|
|-----------7--|-(7)-8----7-------|------------|--------------|
|------9-------|-------------9----|------------|--------------|
|-9------------|------------------|--9---------|-(9)------9S==|
|--------------|------------------|------------|--------------|
|--------------|------------------|------------|--------------|


  (C)
   ~~~       ~~                 ~~
   Q   E Q   Q.      +Q   E Q   Q.       Q.    Q.    Q      Q.      Q.    Q
|------------------|------------------|-----------------|--------------------|
|--8---8-8---8-----|-(8)--8-8---8-----|--8----10----12--|--12b13r==12----10--|
|------------------|------------------|-----------------|--------------------|
|------------------|------------------|-----------------|--------------------|
|------------------|------------------|-----------------|--------------------|
|------------------|------------------|-----------------|--------------------|
|
|  Q.    Q.     Q     Q.    Q.     Q     W                 +W
|------------------|------------------|-----------------|--------------------|
|---------------7--|--8-----7---------|-----------------|--------------------|
|--------9---------|---------------9--|-----------------|--------------------|
|-10---------------|------------------|-10--------------|-(10)---------------|
|------------------|------------------|-----------------|--------------------|
|------------------|------------------|-----------------|--------------------|


  (D)
                 ~~                       ~
   Q    E  Q.    Q     Q.      Q.    Q    W          +W
|-------------------|-------------------|----------|--------|
|---------12----10--|-12b13r==12----10--|-7--------|-(7)----|
|-11---11-----------|-------------------|----------|--------|
|-------------------|-------------------|----------|--------|
|-------------------|-------------------|----------|--------|
|-------------------|-------------------|----------|--------|
|
|  Q.      Q.    Q     Q.      Q.    Q    W          +W
|-------------------|-------------------|----------|--------|
|----------8-----7--|--8b10r===8-----7--|----------|--------|
|--7----------------|-------------------|-7--------|-(7)----|
|-------------------|-------------------|----------|--------|
|-------------------|-------------------|----------|--------|
|-------------------|-------------------|----------|--------|


  (Em)
                                        ~
   Q.   Q.   Q    +E   Q.     Q  Q      W          +H.           Q
|---------------|---------------------|----------|-------------------|
|---------------|----------------5b7r=|=5--------|-(5)-----------5S==|
|-------4-------|-----/7------4-------|----------|-------------------|
|-\2---------2--|-(2)-----------------|----------|-------------------|
|---------------|---------------------|----------|-------------------|
|---------------|---------------------|----------|-------------------|
|
|  Q.   Q.   Q     Q.      Q.    Q      W           E  E E Q   E E E
|---------------|---------------------|----------|-------------------|
|------------7--|--8-------7----------|----------|-------------------|
|-------9-------|----------------9----|----------|-------------------|
|--9------------|---------------------|-9--------|-10--9-7-9--10-9-7-|
|---------------|---------------------|----------|-------------------|
|---------------|---------------------|----------|-------------------|


  (C)
   ~~~       ~~                 ~~
   Q   E Q   Q.      +Q   E Q   Q.       Q.    Q.    Q      Q.      Q.    Q
|------------------|------------------|-----------------|---------------------|
|--8---8-8---8-----|-(8)--8-8---8-----|--8----10----12--|--12b13r==12----10---|
|------------------|------------------|-----------------|---------------------|
|------------------|------------------|-----------------|---------------------|
|------------------|------------------|-----------------|---------------------|
|------------------|------------------|-----------------|---------------------|
|
|  Q.    Q.     Q     Q.    Q.     Q     W                 +H.            Q
|------------------|------------------|-----------------|---------------------|
|---------------7--|--8-----7---------|-----------------|---------------------|
|--------9---------|---------------9--|-----------------|---------------------|
|-10---------------|------------------|-10--------------|-(10)-----------10\--|
|------------------|------------------|-----------------|---------------------|
|------------------|------------------|-----------------|---------------------|


  (D)
                 ~~                       ~
   Q    E  Q.    Q     Q.      Q.    Q    W          +W
|-------------------|-------------------|----------|--------|
|---------12----10--|-12b13r==12----10--|-7--------|-(7)----|
|-11---11-----------|-------------------|----------|--------|
|-------------------|-------------------|----------|--------|
|-------------------|-------------------|----------|--------|
|-------------------|-------------------|----------|--------|
|
|  Q.      Q.    Q     Q.      Q.    Q    W          +W
|-------------------|-------------------|----------|--------|
|----------8-----7--|--8b10r===8-----7--|----------|--------|
|--7----------------|-------------------|-7--------|-(7)----|
|-------------------|-------------------|----------|--------|
|-------------------|-------------------|----------|--------|
|-------------------|-------------------|----------|--------|


    E5
                        \0.5/  \0.5/  \0.5/
    Q.   Q.   Q    +Q   Q      Q      Q        Q.   Q.   Q    +E  Q.   Q  Q
||---------------|---------------------------|--------------|------------------|
||o--------------|---------------------------|--------------|------------------|
||------------4--|-(4)--4------4------4------|-----------4--|-(4)-2------------|
||--2----5-------|---------------------------|-2----5-------|----------5--4S===|
||o--------------|---------------------------|--------------|------------------|
||---------------|---------------------------|--------------|------------------|
|
|   W              +W                          W              +W
||---------------|---------------------------|--------------|------------------|
||o--------------|---------------------------|--------------|------------------|
||---------------|---------------------------|--------------|------------------|
||--2------------|-(2)-----------------------|-2------------|-(2)--------------|
||o-2------------|-(2)-----------------------|-2------------|-(2)--------------|
||--0------------|-(0)-----------------------|-0------------|-(0)--------------|


  B5
                                      \0.5/     \0.5/     \0.5/
  Q.       Q.         Q       +Q      Q         Q         Q
|---------------------------|---------------------------------------|
|---------------------7-----|-(7)-----7---------7---------7---------|
|----------7----------------|---------------------------------------|
|-9-------------------------|---------------------------------------|
|---------------------------|---------------------------------------|
|---------------------------|---------------------------------------|
|
|    PM|   PM-|   PM|   PM|       PM|       PM|       PM|       PM|
| E  S S E S  S E S S E S S    E  S S E     S S E     S S E     S S
|---------------------------|---------------------------------------|
|---------------------------|---------------------------------------|
|---------------------------|---------------------------------------|
|-4------4------4-----4-----|--4------4---------4---------4---------|
|-2--2-2-2-2--2-2-2-2-2-2-2-|--2--2-2-2-----2-2-2-----2-2-2-----2-2-|
|---------------------------|---------------------------------------|


  Q.       Q.         Q
|----------------------------|
|---------------------7------|
|----------7-----------------|
|-9--------------------------|
|----------------------------|
|----------------------------|
|
|    PM|   PM-|   PM|   PM|
| E  S S E S  S E S S E S S
|----------------------------|
|----------------------------|
|----------------------------|
|-4------4------4-----4------|
|-2--2-2-2-2--2-2-2-2-2-2-2--|
|----------------------------|


                                 E5        D5       C5
  +E  Q.         Q     Q          E   E  E  E  E  E  E  E
|-----------------------------||--------------------------|
|-(7)------------------------o||-12--10----10-------------|
|-----9----------7-----6------||--------12----12-11-11s12-|
|-----------------------------||--------------------------|
|----------------------------o||--------------------------|
|-----------------------------||--------------------------|
|
|                                Gtr III
|  W                              E   E  E  E  E  E  E  E
|-----------------------------||--------------------------|
|----------------------------o||--8---7-----7-------------|
|-----------------------------||---------9-----9--7--7s=9-|
|-----------------------------||--------------------------|
|----------------------------o||--------------------------|
|-----------------------------||--------------------------|
|
| Gtr II
|     PM-|   PM|   PM|   PM|
|  E  S  S E S S E S S E S S      Q.        Q     E  Q
|-----------------------------||--------------------------|
|----------------------------o||--------------------------|
|-----------------------------||--------------------------|
|--4-------4-----4-----4------||--9---------7--------5----|
|--2--2--2-2-2-2-2-2-2-2-2-2-o||--7---------5--------3----|
|-----------------------------||--------------------------|


                E5        D5       C5
   +W            E   E  E  E  E  E  E  E    +W
|-------------|--------------------------|---------|
|-------------|-12--10-12-13-12-13-13s15-|-(15)----|
|-(12)--------|--------------------------|---------|
|-------------|--------------------------|---------|
|-------------|--------------------------|---------|
|-------------|--------------------------|---------|
|
|  +W            E   E  E  E  E  E  E  E    +W
|-------------|--------------------------|---------|
|-------------|--8---7--8-10--8-10-10s12-|-(12)----|
|--(9)--------|--------------------------|---------|
|-------------|--------------------------|---------|
|-------------|--------------------------|---------|
|-------------|--------------------------|---------|
|
|  +W            Q.        Q     E  Q       +W
|-------------|--------------------------|---------|
|-------------|--------------------------|---------|
|-------------|--------------------------|---------|
|--(5)--------|--9---------7--------5----|--(5)----|
|--(3)--------|--7---------5--------3----|--(3)----|
|-------------|--------------------------|---------|


   Pre-Chorus
                          1.
    B5                     C5
      PM-----|               PM----|
    E S  S S S E E. E. E   E S S S S E E.   E.   E
||-----------------------|--------------------------||
||o----------------------|-------------------------o||
||-----------------------|--------------------------||
||--4--------------------|-5------------------------||
||o-2-2--2-2-2-3-5--3--2-|-3-3-3-3-3-5-7----5----3-o||
||-----------------------|--------------------------||
|
|   Gtr II
|   E H.               E   E H            E    E E
||-----------------------|--------------------------||
||o----------------------|-------------------------o||
||-----------------------|--------------------------||
||--4------------------4-|-5--------------5------5--||
||o-2------------------2-|-3--------------3------3-o||
||-----------------------|--------------------------||


  2.
    PM-----|
  E S  S S S E E.   E.     E
|-------------------------------|
|-------------------------------|
|-------------------------------|
|-5-----------------------------|
|-3-3--3-3-3-5-7----5------3----|
|-------------------------------|
|
|                 PM---------|
| E Q.         E  S S  S S S S
|-------------------------------|
|-------------------------------|
|-------------------------------|
|-5------------5----------------|
|-3------------3--3-3--3-3-3-3--|
|-------------------------------|


                         1.                       2.
    B5                    C5                      C5            D5
                                                  Gtrs I, II
      PM----|               PM----|                 PM--------|   PM--------|
    E S S S S E E. E. E   E S S S S E E. E. E     E S S S S S S E S S S S S S
||----------------------|----------------------||-----------------------------|
||o---------------------|---------------------o||-----------------------------|
||----------------------|----------------------||-----------------------------|
||--4-------------------|-5--------------------||-5-------------7-------------|
||o-2-2-2-2-2-3S5--3--2-|-3-3-3-3-3-5S7--5--3-o||-3-3-3-3-3-3-3-5-5-5-5-5-5-5-|
||----------------------|----------------------||-----------------------------|
|
|     PM----|               PM----|
|   E S S S S E E. E. E   E S S S S E E. E. E     W
||----------------------|----------------------||-----------------------------|
||o---------------------|---------------------o||-----------------------------|
||----------------------|----------------------||-----------------------------|
||--4---------2S4--2----|-5---------4S5--4--2--||-----------------------------|
||o-2-2-2-2-2---------5-|-3-3-3-3-3-----------o||-----------------------------|
||----------------------|----------------------||-----------------------------|


   Out-Chorus
                         1.
    E5         C5         G5         D5            Eb5
                                       PM--------|   PM--------|
    W          W          W          E S S S S S S E S S S S S S
||-----------|----------|----------|--------------------------------||
||o----------|----------|----------|-------------------------------o||
||-----------|----------|----------|--------------------------------||
||--2--------|-5--------|----------|-7-------------8----------------||
||o-2--------|-3--------|-5--------|-5-5-5-5-5-5-5-6-6-6-6-6-6-6---o||
||--0--------|----------|-3--------|--------------------------------||


  2.
  A5         B5   C5 D5     E5
                              PM------------------------|
  W          H    Q  Q      E S S S S S S S S S S S S S S
|----------|------------||--------------------------------|
|----------|------------||o-------------------------------|
|----------|------------||--------------------------------|
|-2--------|-4----5--7--||--9-----------------------------|
|-0--------|-2----3--5--||o-7-7-7-7-7-7-7-7-7-7-7-7-7-7-7-|
|----------|------------||--------------------------------|


                                 1.
  C5                              G5
    PM------------------------|     PM------------------------|
  E S S S S S S S S S S S S S S   E S S S S S S S S S S S S S S
|-------------------------------|-------------------------------|
|-------------------------------|-------------------------------|
|-------------------------------|-------------------------------|
|-5-----------------------------|-------------------------------|
|-3-3-3-3-3-3-3-3-3-3-3-3-3-3-3-|-5-----------------------------|
|-------------------------------|-3-3-3-3-3-3-3-3-3-3-3-3-3-3-3-|


  D5            Eb5
    PM--------|   PM--------|
  E S S S S S S E S S S S S S
|-------------------------------||
|------------------------------o||
|-------------------------------||
|-7-------------8---------------||
|-5-5-5-5-5-5-5-6-6-6-6-6-6-6--o||
|-------------------------------||


  2.
  A5                              B5            C5 D5
  E S S S S S S S S S S S S S S   E S S S S S S Q  Q
|-------------------------------|---------------------|
|-------------------------------|---------------------|
|-------------------------------|---------------------|
|-2-----------------------------|-4-------------5--7--|
|-0-0-0-0-0-0-0-0-0-0-0-0-0-0-0-|-2-2-2-2-2-2-2-3--5--|
|-------------------------------|---------------------|


   Outro
    E5
    Gtr I
    PM------------------------|
    S S S S S S S S S S S S S S S S
||----------------------------------|
||o---------------------------------|
||----------------------------------|
||----------------------------------|
||o---------------------------------|
||--0-0-3-0-2h3-0-0-5-0-0-3-0-0-2h3-|
|
|   Gtr II
|   W
||----------------------------------|
||o---------------------------------|
||----------------------------------|
||--2-------------------------------|
||o-2-------------------------------|
||--0-------------------------------|


                            G5B5    E5
   PM---------------------|
   S  S S S S S S S S S S S E E  4x q  H.
|--------------------------------||----------*|
|-------------------------------o||----------*|
|--------------------------------||----------*|
|--------------------------------||----------*|
|-----------------------------2-o||-2--------*|
|--0--0-3-0-2h3-0-0-3-2-2-3-3----||-0--------*|
|
| +H.                       E E  4x q  H.
|--------------------------------||----------*|
|-------------------------------o||----------*|
|--------------------------------||----------*|
|-(2)-------------------------4--||-2--------*|
|-(2)-----------------------5-2-o||-2--------*|
|-(0)-----------------------3----||-0--------*|




--------------------------------------------------------------------------------


Duration Legend
---------------
W - whole; H - half; Q - quarter; E - 8th; S - 16th; T - 32nd; X - 64th; a - acciaccatura
+ - note tied to previous; . - note dotted; .. - note double dotted
Uncapitalized letters represent notes that are staccato (1/2 duration)
Irregular groupings are notated above the duration line
Duration letters will always appear directly above the note/fret number it represents the
duration for.  Duration letters with no fret number below them represent rests.  Multi-
bar rests are notated in the form Wxn, where n is the number of bars to rest for.  Low
melody durations appear below the staff

Tablature Legend
----------------
 h   - hammer-on
 p   - pull-off
 b   - bend
 pb  - pre-bend
 r   - bend release (if no number after the r, then release immediately)
 /\  - slide into or out of (from/to "nowhere")
 s   - legato slide
 S   - shift slide
 - natural harmonic
[n]  - artificial harmonic
n(n) - tapped harmonic
 ~   - vibrato
 tr  - trill
 T   - tap
 TP  - trem. picking
 PM  - palm muting
\n/  - tremolo bar dip; n = amount to dip
 \n  - tremolo bar down
 n/  - tremolo bar up
/n\  - tremolo bar inverted dip
 =   - hold bend; also acts as connecting device for hammers/pulls
 <> - volume swell (louder/softer)
 x   - on rhythm slash represents muted slash
 o   - on rhythm slash represents single note slash

Misc Legend
-----------
 |  - bar
||  - double bar
||o - repeat start
o|| - repeat end
*|  - double bar (ending)
 :  - bar (freetime)
 $  - Segno
 &  - Coda
Tempo markers -  = BPM(8/16=s8/s16), where s8 = swing 8ths, s16 = swing 16ths





Comments


Popular Edguy tabs & chords
Painting On The Wall Bass Tabs
Painting On The Wall 2 Bass Tabs
Rose To No One Chords
Roses To No One Chords
Babylon Tabs
Dragonfly Tabs
The Kingdom Tabs
Vain Glory Opera 1 Tabs
Save Me Ukulele
Superheroes Ukulele


Song lyrics



↑ Back to top | Tablatures and chords are parodies/interpretations of the original songs. You may use it for private study, scholarship, research or language learning purposes only
© 2014 AZChords.com Contact us | Privacy policy | DMCA | Add/correct tabs | Request tabs | Top 50 tabs