>
 >
Mysteria 2

Mysteria 2 Guitar Tabs

Edguy - Mysteria 2 chords, tabs, tablatures, lyrics

Guitar lessons | Add/correct | Request | Top 50 tabs Artists:  A B C D E F G H I J K L M N O P Q R S T U V W X Y Z 0-9

Mysteria 2 Guitar Tabs – Edguy

CD, Sheet music, Poster

Do you like Mysteria 2? Share with your friends now
TabsTabs v2


                                                                           
Si quieren mas solos diganme y se los consigo (If you want to tell me more solos and get them)


  E  E   E   E    E   E  E   E     Q    E  E  H          
-----0--12--12b--10--12--8--10--|--7----7--8--4~--------|
--------------------------------|-----------------------|
--------------------------------|-----------------------|
--------------------------------|-----------------------|
--------------------------------|-----------------------|
--------------------------------|-----------------------|


  E  E  E  E  E  E  E   E      E   E   E    E   H          
--L--4--5--7--8--7--8--10--|--11b-----12S--13--12~--------|
---------------------------|------------------------------|
---------------------------|------------------------------|
---------------------------|------------------------------|
---------------------------|------------------------------|
---------------------------|------------------------------|


   E      E   E   E   E     E       E   E   
--12--16g16--16--16--16S--(12)--16g16--16--|
-------------------------------------------|
-------------------------------------------|
-------------------------------------------|
-------------------------------------------|
-------------------------------------------|


   E   E   E     E    E   E   Q         E      E   E   E   E     E    E   E   
--16--16--16S--(12)--12--13--12~----|--12--16g16--16--16--16S--(12)--12--13--|
------------------------------------|----------------------------------------|
------------------------------------|----------------------------------------|
------------------------------------|----------------------------------------|
------------------------------------|----------------------------------------|
------------------------------------|----------------------------------------|


                               /0\                                          
   E   E  E  E  E  E  E  E     W                   E  E  E  E  E  E  E  E   
--12--10--8--7--8--7--5--4--|--4----------------|--4--5--4--1--4--1--0-----|
----------------------------|-------------------|-----------------------3--|
----------------------------|-------------------|--------------------------|
----------------------------|-------------------|--------------------------|
----------------------------|-------------------|--------------------------|
----------------------------|-------------------|--------------------------|


  E   E  E  E  E  E  E  E     E  E  E  E    E  S   E  S   E   
---------------------------|---------------------------------|
--3b-----5--6--5--3--5--3--|--1--3--1--0--1g1----0g0----1g1--|
---------------------------|---------------------------------|
---------------------------|---------------------------------|
---------------------------|---------------------------------|
---------------------------|---------------------------------|


    Q     E  E  E  E  E  E     E  E  E  E  H          
----------------------------|------------------------|
----------------------------|------------------------|
----------------------------|--------5--7--9~--------|
--2g2~----2--0--2--3--5--6--|--7--9------------------|
----------------------------|------------------------|
----------------------------|------------------------|


  E  E  E  E   E  E  E   E     E  E   E   E  E   E   Q      
--------5---------7---------|--8---------10---------12~----|
-----9--------10--------12--|--------13---------15---------|
--9--------9---------9------|-----9----------9-------------|
----------------------------|------------------------------|
----------------------------|------------------------------|
----------------------------|------------------------------|


   H         H               E   E   E   E   E   E   Q      
--12b--------Lpbr--------|--12--13--13--17--17--16--16~----|
-------------------------|---------------------------------|
-------------------------|---------------------------------|
-------------------------|---------------------------------|
-------------------------|---------------------------------|
-------------------------|---------------------------------|


   E   E   E   E   E   E   E   E      E   E  E   E  E  E  E  E   
---L--13--16--13--12--13--12--10--|--12--10--8--10--8--7--8--7--|
----------------------------------|-----------------------------|
----------------------------------|-----------------------------|
----------------------------------|-----------------------------|
----------------------------------|-----------------------------|
----------------------------------|-----------------------------|


  W                    H         Q        Q         Q     E  E  E  E  E  E   
--7b----------------|--7~--------7S----7g19~----|--19~----7--5--5--4--4--1--|
--------------------|---------------------------|---------------------------|
--------------------|---------------------------|---------------------------|
--------------------|---------------------------|---------------------------|
--------------------|---------------------------|---------------------------|
--------------------|---------------------------|---------------------------|


  E  E  E  E  H          
--1--0--0--1--0~--------|
------------------------|
------------------------|
------------------------|
------------------------|
------------------------|


  Whatever... I suppose a pitch-shifter is used here           
  \3/                                                          
  H                                                  H         
--1--------------------------------------------------L--------|
--------------------------------------------------------------|
--------------------------------------------------------------|
--------------------------------------------------------------|
--------------------------------------------------------------|
--------------------------------------------------------------|


                       W                     W                  
-------------------|---L-----------------|---------------------|
-------------------|--24S----------------|--13~----------------|
-------------------|---------------------|---------------------|
-------------------|---------------------|---------------------|
-------------------|---------------------|---------------------|
-------------------|---------------------|---------------------|



Duration Legend
---------------
W - whole
H - half
Q - quarter
E - 8th
S - 16th
T - 32nd
X - 64th
. - note dotted
|-n-|  - n-tuplets


Tablature Legend
----------------
L - tied note
x - dead note
g - grace note
(n) - ghost note
> - accentuded note
NH - natural harmonic
AH - artificial harmonic
TH - tapped harmonic
SH - semi harmonic
PH - pitch harmonic
h - hammer on
p - pull off
b - bend
br - bendRelease
pb - preBend
pbr - preBendRelease
brb - bendReleaseBend
\n/ - tremolo bar dip
\n - tremolo bar dive
-/n - tremolo bar Release up
/n\ - tremolo bar inverted dip
/n - tremolo bar return
-\n - tremolo bar Release down
S - shift slide
s - legato slide
/ -  slide into from below or out of upwards
\ -  slide into from above or out of downwards
~ - vibrato
W - wide vibrato
tr - trill
TP - tremolo picking
T - tapping
S - slap
P - pop
< - fade in
^ - brush up
v - brush down





Comments


Popular Edguy tabs & chords
All The Clowns Bass Tabs
9-2-9 Chords
Save Me Chords
King Of Fools 1 Tabs
Out Of Control Tabs
Painting On The Wall Tabs
The Kingdom Tabs
Das Reh Ukulele
Sands Of Time Ukulele
The Spirit Will Remain Ukulele


Song lyrics



↑ Back to top | Tablatures and chords are parodies/interpretations of the original songs. You may use it for private study, scholarship, research or language learning purposes only
© 2014 AZChords.com Contact us | Privacy policy | DMCA | Add/correct tabs | Request tabs | Top 50 tabs