>
 >
Hymn

Hymn Guitar Tabs

Edguy - Hymn chords, tabs, tablatures, lyrics

Guitar lessons | Add/correct | Request | Top 50 tabs Artists:  A B C D E F G H I J K L M N O P Q R S T U V W X Y Z 0-9

Hymn Guitar Tabs – Edguy

CD, Sheet music, Poster

Do you like Hymn? Share with your friends now
Tabs
                                      Hymn
                                    by Edguy
                              from Vain Glory Opera
                             -----------------------



Intro:

no guitar 1st time

e:--------------------------------------------------------------------------------------
B:--------------------------------------------------------------------------------------
G:----4--5----------4--5--7------4--5----------4--5--7------7------7------7------7----7-
D:-2--4--5--5-4--2--4--5--7---2--4--5--5-4--2--4--5--7------7------7------7------7----7-
A:-2--2--3--5-4--2--2--3--5---2--2--3--5-4--2--2--3--5-5555-5-5555-5-5555-5-5555-5-55-5-
E:-0--------3-2--0------------0--------3-2--0-------------------------------------------

e:------------
B:------------
G:------------
D:-5--5--5--5-
A:-5--5--5--5-
E:-3--3--3--3-

verse
p.m......................................................................
e:------------------------------------------------------------------------------
B:------------------------------------------------------------------------------
G:------------------------------------------------------------------------------
D:------------------------------------------------------------------------5---5-
A:------------------------------------------------------------------------------
E:-111-111--111-111--333-333--333-333--111-111--111-111--333-333--333-333---3---

p.m....................................................  p.m..........  p.m.......
e:---------------------------------------------------------------------------------------
B:---------------------------------------------------------------------------------------
G:-----------------------------------------------------------------------7-7-7-7-7-7-7-7-
D:-------------------------------------------------------5---------------7-7-7-7-7-7-7-7-
A:-------------------------------------------------------5-5-5-5-5-5-5-5-5-5-5-5-5-5-5-5-
E:-111-111--111-111--333-333--333-333--111-111--111-111--3-3-3-3-3-3-3-3-----------------

chorus
e:--------------------------------------------------------------------------------------
B:--------------------------------------------------------------------------------------
G:----4--5----------4--5--7------4--5----------4--5--7------7------7------7------7----7-
D:-2--4--5--5-4--2--4--5--7---2--4--5--5-4--2--4--5--7------7------7------7------7----7-
A:-2--2--3--5-4--2--2--3--5---2--2--3--5-4--2--2--3--5-5555-5-5555-5-5555-5-5555-5-55-5-
E:-0--------3-2--0------------0--------3-2--0-------------------------------------------

e:------------
B:------------
G:------------
D:-5--5--5--5-
A:-5--5--5--5-
E:-3--3--3--3-

verse 2
p.m......................................................................
e:------------------------------------------------------------------------------
B:------------------------------------------------------------------------------
G:------------------------------------------------------------------------------
D:------------------------------------------------------------------------5---5-
A:------------------------------------------------------------------------------
E:-111-111--111-111--333-333--333-333--111-111--111-111--333-333--333-333---3---

p.m....................................................  p.m..........  p.m.......
e:---------------------------------------------------------------------------------------
B:---------------------------------------------------------------------------------------
G:-----------------------------------------------------------------------7-7-7-7-7-7-7-7-
D:-------------------------------------------------------5---------------7-7-7-7-7-7-7-7-
A:-------------------------------------------------------5-5-5-5-5-5-5-5-5-5-5-5-5-5-5-5-
E:-111-111--111-111--333-333--333-333--111-111--111-111--3-3-3-3-3-3-3-3-----------------

e:-----------------------------------------------------------
B:-----------------------------------------------------------
G:----4--5----------4--5--7------7------7------7------7----7-
D:-2--4--5--5-4--2--4--5--7------7------7------7------7----7-
A:-2--2--3--5-4--2--2--3--5-5555-5-5555-5-5555-5-5555-5-55-5-
E:-0--------3-2--0-------------------------------------------

guitar 1
p.m.......................................................................
e:------------------------------------------------------------------------
B:------------------------------------------------------------------------
G:------------------------------------------------------------------------
D:------------------------------------------------------------------------
A:------------------------------------------------------------------------
E:-5-4-5-3--5-4-5-3--5-4-5-3--5-4-5-3--8-6-8-5--8-6-8-5--8-6-8-5--8-6-8-5-

..................................
e:-------------------------------------
B:-------------------------------------
G:-------------------------------------
D:----------------------------------3--
A:-5-3-5---5-3-5---5-3-5---5-3-5----3--
E:-------6-------6-------6-------6--1--

guitar 2
e:-------------------
B:-------------------
G:-------------5-----
D:-5---7---8---5--3--
A:-5---7---8---3--3--
E:-3---5---6------1--

solo 
e:-----------------------------------------------------
B:-10-8-10-10-8----8-10-8-8-10-----10-8-10-11-10-8-----
G:--------------10-------------10------------------10--
D:-----------------------------------------------------
A:-----------------------------------------------------
E:-----------------------------------------------------

e:---------------------------8-----------8--------------8-8--10p-8----   p=pull off
B:-10-8-10-10-8----8-10-8-11---11-10--11---11-10--10-11------------11-
G:--------------10----------------------------------------------------
D:--------------------------------------------------------------------
A:--------------------------------------------------------------------
E:--------------------------------------------------------------------

guitar 2
e:------------------------------------------------
B:------------------------------------------------
G:-------5--7--3--5-------------5--7--3--5------5-
D:-3-2---5--7--3--5--3----3-2---5--7--3--5--5-5-5-
A:-----5-3--5--1--3--3--------5-3--5--1--3--3-3-3-
E:-------------------1----------------------------


just bass
G:----------------------------------------------------------------------------------
D:---------------------------------------------------------------------------------- 
A:-----------2222-2222-3333-3333----------------------2222-2222-3333-3333-5555-5555-  x2
E:-0000-0000---------------------3333-2222--0000-0000-------------------------------

e:-------------------------------------
B:-------------------------------------
G:----6--7----------6--7--9----9----9-- 
D:-4--6--7--7-6--4--6--7--9----9----9-- x2
A:-4--4--5--7-6--4--4--5--7-77-7-77-7--
E:-2--------5-4--2---------------------

p.m....................................................................
e:---------------------------------------------------------------------
B:---------------------------------------------------------------------
G:---------------------------------------------------------------------
D:---------------------------------------------------------------------  
A:-------4444..--5555..-------------------------4444..--5555..--7777..-
E:-2222..--------------55555555-44444444--2222..-----------------------

e:-----------------------------------------------------------------------------------------
B:-----------------------------------------------------------------------------------------
G:------------------------------------------------------7-7-7-7--9-9-9-9--7-7-7-7--9-9-9-9-
D:------------------------------------------------------7-7-7-7--9-9-9-9--7-7-7-7--9-9-9-9-
A:-------4444..--5555..-------------------------4444..--5-5-5-5--7-7-7-7--5-5-5-5--7-7-7-7-
E:-2222..--------------55555555-44444444--2222..-------------------------------------------

e:------------------------
B:------------------------
G:-7--7---9--9------------
D:-7--7---9--9---4---4\sl-
A:-5--5---7--7---4---4\sl-
E:---------------2---2\sl-





Comments


Popular Edguy tabs & chords
Vain Glory Opera Bass Tabs
Dragonfly Chords
Arrows Fly Tabs
Down To The Devil Tabs
Mysteria 2 Tabs
Theater Of Salvation Tabs
Holy Water Ukulele
Lavatory Love Machine Ukulele
Reach Out Ukulele
Save Me Ukulele


Song lyrics



↑ Back to top | Tablatures and chords are parodies/interpretations of the original songs. You may use it for private study, scholarship, research or language learning purposes only
© 2014 AZChords.com Contact us | Privacy policy | DMCA | Add/correct tabs | Request tabs | Top 50 tabs