>
 >
Final Gate

Final Gate Bass Tabs

Edguy - Final Gate chords, tabs, tablatures, lyrics

Guitar lessons | Add/correct | Request | Top 50 tabs Artists:  A B C D E F G H I J K L M N O P Q R S T U V W X Y Z 0-9

Final Gate Bass Tabs – Edguy

CD, Sheet music, Poster

Do you like Final Gate? Share with your friends now
Bass TabsTabs
                                  Final Gate      (BY sAdZI0)

BASS                              


Tobias Sammet
                                                        
G||------|------|------|------|------------------------|
D||------|------|------|------|---------------------0--|
A||------|------|------|------|--2----2----2-----2-----|
E||------|------|------|------|----------------2-------|


                                                                           
------------------------|------------------------|------------------------|
------------------------|---------------------0--|------------------------|
--2----2----2----2---0--|--2----2----2-----2-----|--2----2----2----2---0--|
-------------------2----|----------------2-------|-------------------2----|


                                                                           
------------------------|------------------------|------------------------|
---------------------0--|------------------------|---------------------0--|
--2----2----2-----2-----|--2----2----2----2---0--|--2----2----2-----2-----|
----------------2-------|-------------------2----|----------------2-------|


                                                                           
------------------------|------------------------|------------------------|
------------------------|---------------------0--|------------------------|
--2----2----2----2---0--|--2----2----2-----2-----|--2----2----2----2---0--|
-------------------2----|----------------2-------|-------------------2----|


                                                                              
------------------------|------------------------|---------------------------|
---------------------0--|------------------------|---------------------------|
--2----2----2-----2-----|--2----2----2----2---0--|--2-2-2----2-2-2----2-2-2--|
----------------2-------|-------------------2----|---------------------------|


                                                        
---------------------------|---------------------------|
---------------------------|---------------------------|
--2-2-2----2-2-2----2-2-2--|--2-2-2----2-2-2----2-2-2--|
---------------------------|---------------------------|


                                                        
---------------------------|---------------------------|
---------------------------|---------------------------|
--2-2-2----2-2-2----2-2-2--|--2-2-2----2-2-2----2-2-2--|
---------------------------|---------------------------|


                                                        
---------------------------|---------------------------|
---------------------------|---------------------------|
--2-2-2----2-2-2----2-2-2--|--2-2-2----2-2-2----2-2-2--|
---------------------------|---------------------------|


                                                        
---------------------------|---------------------------|
---------------------------|---------------------------|
--2-2-2----2-2-2----2-2-2--|--2-2-2----2-2-2----2-2-2--|
---------------------------|---------------------------|


                                                        
---------------------------|---------------------------|
---------------------------|---------------------------|
--2-2-2----2-2-2----2-2-2--|--2-2-2----2-2-2----2-2-2--|
---------------------------|---------------------------|


                                                        
---------------------------|---------------------------|
---------------------------|---------------------------|
--2-2-2----2-2-2----2-2-2--|--2-2-2----2-2-2----2-2-2--|
---------------------------|---------------------------|


                                                        
---------------------------|---------------------------|
---------------------------|---------------------------|
--2-2-2----2-2-2----2-2-2--|--2-2-2----2-2-2----2-2-2--|
---------------------------|---------------------------|


                                                       
---------------------------|--------------------------|
---------------------------|--------------------------|
--2-2-2----2-2-2----2-2-2--|--2--2--2--2--2--2--2--2--|
---------------------------|--------------------------|


                                                       
---------------------------|--------------------------|
---------------------------|--------------------------|
--2--2--2--2--2--2--2---0--|--2--2--2--2--2--2--2--2--|
----------------------2----|--------------------------|


                                                       
--------------------------|---------------------------|
--------------------------|---------------------------|
--2--2--2--2--2--2--2--2--|--2-2-2----2-2-2----2-2-2--|
--------------------------|---------------------------|


                                                        
---------------------------|---------------------------|
---------------------------|---------------------------|
--2-2-2----2-2-2----2-2-2--|--2-2-2----2-2-2----2-2-2--|
---------------------------|---------------------------|


                                                        
---------------------------|---------------------------|
---------------------------|---------------------------|
--2-2-2----2-2-2----2-2-2--|--2-2-2----2-2-2----2-2-2--|
---------------------------|---------------------------|


                                                        
---------------------------|---------------------------|
---------------------------|---------------------------|
--2-2-2----2-2-2----2-2-2--|--2-2-2----2-2-2----2-2-2--|
---------------------------|---------------------------|


                                                       
---------------------------|--------------------------|
---------------------------|--------------------------|
--2-2-2----2-2-2----2-2-2--|--2--2--2--2--2--2--2--2--|
---------------------------|--------------------------|


                                                       
---------------------------|--------------------------|
---------------------------|--------------------------|
--2--2--2--2--2--2--2---0--|--2--2--2--2--2--2--2--2--|
----------------------2----|--------------------------|


                                                        
--------------------------|----------------------------|
--------------------------|----------------------------|
--2--2--2--2--2--2--2--2--|----------------------------|
--------------------------|--3-3-3-3-3----3-3-3-3-3----|


                                
-------------------------------|
-------------------------------|
-------------------------------|
--3-3-3-3-3----3-3-3-3-5-5-5-5-|


                                                   
--------------------------------------------------|
--------------------------------------------------|
----5-9---5-9---5-9---5-9---5-9---5-9---5-9---5-9-|
--7-----7-----7-----7-----7-----7-----7-----7-----|


                                                                                
--------------------------------------------------|----------------------------|
--------------------------------------------------|----------------------------|
----5-9---5-9---5-9---5-9---5-9---5-9---5-9---5-9-|----------------------------|
--7-----7-----7-----7-----7-----7-----7-----7-----|--3-3-3-3-3----3-3-3-3-3----|


                                                                              
----------------------------|--------------------------|---------------------|
----------------------------|--------------------------|---------------------|
----------------------------|--------------------------|---------------------|
--3-3-3-3-3----3-3-3-3-3----|--2--2--2--2--2--2--2--2--|--2/-------7----5----|


                                                                     
----------------------|----------------------|----------------------|
----------------------|----------------------|----------------------|
----------------------|----------------------|----------------------|
--7----7----7----7----|--7----7----7----7----|--3----3----3----3----|


                                                                     
----------------------|----------------------|----------------------|
----------------------|----------------------|----------------------|
----------------------|----------------------|----------------------|
--0----0----3----5----|--7----7----7----7----|--7----7----7----7----|


                                                                         
----------------------|----------------------|--------------------------|
----------------------|----------------------|--------------------------|
----------------------|----------------------|--------------------------|
--3----3----3----3----|--0----0----3----5----|--7--7--7--7--7--7--7--7--|


                                                      
--------------------------|--------------------------|
--------------------------|--------------------------|
--------------------------|--------------------------|
--3--3--3--3--5--5--5--5--|--7--7--7--7--7--7--7--7--|


                                                      
--------------------------|--------------------------|
--------------------------|--------------------------|
--------------------------|--5--5--5--5--5--5--5--5--|
--3--3--3--3--5--5--5--5--|--------------------------|


                                                      
--------------------------|--------------------------|
--------------------------|--------------------------|
--1--1--1--1--3--3--3--3--|--5--5--5--5--5--5--5--5--|
--------------------------|--------------------------|


                                                         
--------------------------|----------------9-----9------|
--------------------------|------------------9-----9----|
--1--1--1--1--3--3--3--3--|--7--7--7--7--7-----7-----7--|
--------------------------|-----------------------------|


                                                      
--------------------------|--------------------------|
--------------------------|--------------------------|
--3--3--3--3--5--5--5--5--|--7--7--7--7--7--7--7--7--|
--------------------------|--------------------------|


                                                          
--------------------------|----------------3-5---3-------|
--------------------------|--5--5--5--5--5-----5---5-3-5-|
--3--3--3--3--5--5--5--5--|------------------------------|
--------------------------|------------------------------|


                                                      
--------------------------|--------------------------|
--1--1--1--1--3--3--3--3--|--5--5--5--5--5--5--5--5--|
--------------------------|--------------------------|
--------------------------|--------------------------|


                                                       
--------------------------|---------------------------|
--1--1--1--1--3--3--3--3--|---------------------------|
--------------------------|--2-2-2----2-2-2----2-2-2--|
--------------------------|---------------------------|


                                                        
---------------------------|---------------------------|
---------------------------|---------------------------|
--2-2-2----2-2-2----2-2-2--|--2-2-2----2-2-2----2-2-2--|
---------------------------|---------------------------|


                                                        
---------------------------|---------------------------|
---------------------------|---------------------------|
--2-2-2----2-2-2----2-2-2--|--2-2-2----2-2-2----2-2-2--|
---------------------------|---------------------------|


                                                        
---------------------------|---------------------------|
---------------------------|---------------------------|
--2-2-2----2-2-2----2-2-2--|--2-2-2----2-2-2----2-2-2--|
---------------------------|---------------------------|


                                                        
---------------------------|---------------------------|
---------------------------|---------------------------|
--2-2-2----2-2-2----2-2-2--|--2-2-2----2-2-2----2-2-2--|
---------------------------|---------------------------|


                                                        
---------------------------|---------------------------|
---------------------------|---------------------------|
--2-2-2----2-2-2----2-2-2--|--2-2-2----2-2-2----2-2-2--|
---------------------------|---------------------------|


                                                        
---------------------------|---------------------------|
---------------------------|---------------------------|
--2-2-2----2-2-2----2-2-2--|--2-2-2----2-2-2----2-2-2--|
---------------------------|---------------------------|


                                                        
---------------------------|---------------------------|
---------------------------|---------------------------|
--2-2-2----2-2-2----2-2-2--|--2-2-2----2-2-2----2-2-2--|
---------------------------|---------------------------|


                                                       
---------------------------|--------------------------|
---------------------------|--------------------------|
--2-2-2----2-2-2----2-2-2--|--2--2--2--2--2--2--2--2--|
---------------------------|--------------------------|


                                                       
---------------------------|--------------------------|
---------------------------|--------------------------|
--2--2--2--2--2--2--2---0--|--2--2--2--2--2--2--2--2--|
----------------------2----|--------------------------|


                                                       
--------------------------|---------------------------|
--------------------------|---------------------------|
--2--2--2--2--2--2--2--2--|--2-2-2----2-2-2----2-2-2--|
--------------------------|---------------------------|


                                                        
---------------------------|---------------------------|
---------------------------|---------------------------|
--2-2-2----2-2-2----2-2-2--|--2-2-2----2-2-2----2-2-2--|
---------------------------|---------------------------|


                                                        
---------------------------|---------------------------|
---------------------------|---------------------------|
--2-2-2----2-2-2----2-2-2--|--2-2-2----2-2-2----2-2-2--|
---------------------------|---------------------------|


                                                        
---------------------------|---------------------------|
---------------------------|---------------------------|
--2-2-2----2-2-2----2-2-2--|--2-2-2----2-2-2----2-2-2--|
---------------------------|---------------------------|


                                                       
---------------------------|--------------------------|
---------------------------|--------------------------|
--2-2-2----2-2-2----2-2-2--|--2--2--2--2--2--2--2--2--|
---------------------------|--------------------------|


                                                       
---------------------------|--------------------------|
---------------------------|--------------------------|
--2--2--2--2--2--2--2---0--|--2--2--2--2--2--2--2--2--|
----------------------2----|--------------------------|


                                                        
--------------------------|----------------------------|
--------------------------|----------------------------|
--2--2--2--2--2--2--2--2--|----------------------------|
--------------------------|--3-3-3-3-3----3-3-3-3-3----|


                                
-------------------------------|
-------------------------------|
-------------------------------|
--3-3-3-3-3----3-3-3-3-5-5-5-5-|


                                                   
--------------------------------------------------|
--------------------------------------------------|
----5-9---5-9---5-9---5-9---5-9---5-9---5-9---5-9-|
--7-----7-----7-----7-----7-----7-----7-----7-----|


                                                                                
--------------------------------------------------|----------------------------|
--------------------------------------------------|----------------------------|
----5-9---5-9---5-9---5-9---5-9---5-9---5-9---5-9-|----------------------------|
--7-----7-----7-----7-----7-----7-----7-----7-----|--3-3-3-3-3----3-3-3-3-3----|


                                                                              
----------------------------|--------------------------|---------------------|
----------------------------|--------------------------|---------------------|
----------------------------|--------------------------|---------------------|
--3-3-3-3-3----3-3-3-3-3----|--2--2--2--2--2--2--2--2--|--2/-------7----5----|


                                                                     
----------------------|----------------------|----------------------|
----------------------|----------------------|----------------------|
----------------------|----------------------|----------------------|
--7----7----7----7----|--7----7----7----7----|--3----3----3----3----|


                                                                     
----------------------|----------------------|----------------------|
----------------------|----------------------|----------------------|
----------------------|----------------------|----------------------|
--0----0----3----5----|--7----7----7----7----|--7----7----7----7----|


                                              
----------------------|----------------------|
----------------------|----------------------|
----------------------|----------------------|
--3----3----3----3----|--0----0----3----5----|


                                                                      
----------------------------------|----------------------------------|
----------------------------------|----------------------------------|
----------------------------------|----------------------------------|
--7-7-7-7-7-7-7-7-7-7-7-7-7-7-7-7-|--5-5-5-5-5-5-5-5-5-5-5-5-5-5-5-5-|


                                                                      
----------------------------------|----------------------------------|
----------------------------------|----------------------------------|
----------------------------------|----------------------------------|
--7-7-7-7-7-7-7-7-7-7-7-7-7-7-7-7-|--5-5-5-5-5-5-5-5-5-5-5-5-5-5-5-5-|


                                                                      
----------------------------------|----------------------------------|
----------------------------------|----------------------------------|
----------------------------------|----------------------------------|
--7-7-7-7-7-7-7-7-7-7-7-7-7-7-7-7-|--7-7-7-7-7-7-7-7-7-7-7-7-7-7-7-7-|


                                                                   
------------------------------------------------------------------|
--9-12-16-9-12-16-9-12-16-9-12-16-9-12-16-9-12-16-9-12-16-9-12-16-|
------------------------------------------------------------------|
------------------------------------------------------------------|


                                                                   
------------------------------------------------------------------|
--9-12-17-9-12-17-9-12-17-9-12-17-9-12-17-9-12-17-9-12-17-9-12-17-|
------------------------------------------------------------------|
------------------------------------------------------------------|


                                                                   
------------------------------------------------------------------|
--9-12-16-9-12-16-9-12-16-9-12-16-9-12-16-9-12-16-9-12-16-9-12-16-|
------------------------------------------------------------------|
------------------------------------------------------------------|


                                                                   
------------------------------------------------------------------|
--9-12-17-9-12-17-9-12-17-9-12-17-9-12-17-9-12-17-9-12-17-9-12-17-|
------------------------------------------------------------------|
------------------------------------------------------------------|


                                                                   
------------------------------------------------------------------|
--9-12-16-9-12-16-9-12-16-9-12-16-9-12-16-9-12-16-9-12-16-9-12-16-|
------------------------------------------------------------------|
------------------------------------------------------------------|


                                                              
----------------------------------|--------------------------|
----------------------------------|--------------------------|
----------------------------------|--------------------------|
--7-7-7-7-7-7-7-7-7-7-7-7-7-7-7-7-|--7--7--7--7--7--7--7--7--|


                                                      
--------------------------|--------------------------|
--------------------------|--------------------------|
--------------------------|--------------------------|
--7--7--7--7--7--7--7--7--|--7--7--7--7--7--7--7--7--|


                                                      
--------------------------|--------------------------|
--------------------------|--------------------------|
--------------------------|--------------------------|
--7--7--7--7--7--7--7--7--|--7--7--7--7--7--7--7--7--|


                                                      
--------------------------|--------------------------|
--------------------------|--------------------------|
--------------------------|--------------------------|
--7--7--7--7--7--7--7--7--|--7--7--7--7--7--7--7--7--|


                                    
--------------------------|-------||
--------------------------|-------||
--------------------------|--2----||
--7--7--7--7--7--7--7--7--|-------||





Comments


Popular Edguy tabs & chords
Superheroes Bass Tabs
Dragonfly Chords
Rose To No One Chords
Save Me Chords
Scarlet Rose Chords
King Of Fools Tabs
No More Foolin 1 Tabs
Tears Of A Mandrake Tabs
Vain Glory Opera 1 Tabs
Wake Up Dreaming Black Tabs


Song lyrics



↑ Back to top | Tablatures and chords are parodies/interpretations of the original songs. You may use it for private study, scholarship, research or language learning purposes only
© 2014 AZChords.com Contact us | Privacy policy | DMCA | Add/correct tabs | Request tabs | Top 50 tabs