>
 >
Fairytale

Fairytale Guitar Tabs

Edguy - Fairytale chords, tabs, tablatures, lyrics

Guitar lessons | Add/correct | Request | Top 50 tabs Artists:  A B C D E F G H I J K L M N O P Q R S T U V W X Y Z 0-9

Fairytale Guitar Tabs – Edguy

CD, Sheet music, Poster

Do you like Fairytale? Share with your friends now
Tabs
-------------------------------------------------------------------------------
-------------------------------------------------------------------------------

Tuning: Standard



INTRO

                                                                |-(sT.P & P.M)-----|
e|---------------------------------------------------------------------------------|
B|---------------------------------------------------------------------------------|
G|---------------------------------------------------------------------------------|
D|--5--------5---------x-x-5h7--5h7--5h7--5h7--5h7-7-5-7-5-----------------10--9---|
A|--5--------5---------------------------------------------7-----8--10--12-------10|
E|--3--------3---------------------------------------------------------------------|


                                                |--(sT.P & P.M)-----|
e|---------------------------------------------------------------------------------|
B|---------------------------------------------------------------------------------|
G|---------------------------------------------------------------------------------|
D|----x-x-5h7--5h7--5h7--5h7--5h7-7-5-7-5-----------------10--12--9----------------|
A|----------------------------------------7-----8--10--12--------------------------|
E|---------------------------------------------------------------------------------|


VERSE (2x) (Giants of stone...)

[Guitar 1]

e|---------------------------------------------------------------------------------|
B|---------------------------------------------------------------------------------|
G|---------------------------------------------------------------------------------|
D|----x-x-5h7--5h7--5h7--5h7--5h7-7-5-7-5-------x-x-5h7-5h7-5h7-5h7-5h7-7-5-7-5----|
A|----------------------------------------7-------------------------------------7--|
E|---------------------------------------------------------------------------------|


e|------------------------------------------------------|
B|------------------------------------------------------|
G|------------------------------------------------------|
D|--10--------------10----------10------10-----10--10---|
A|--8--8-8-8-8-...--8--8-8-8-8--8--8-8--8--8-8--8--8----|
E|------------------------------------------------------|


e|------------------------------------------------------|
B|------------------------------------------------------|
G|------------------------------------------------------|
D|-------------10----------10------10--10---------------|
A|-8-8-8-8-...-8--8-8-8-8--8--8-8---8---8---------------|
E|------------------------------------------------------|



[Guitar 2]

e|---------------------------------------------------------------------------------|
B|---------------------------------------------------------------------------------|
G|----x-x-4h5--4h5--4h5--4h5--4h5-5-4-5-4-----x-x-4h5--4h5--4h5--4h5--4h5-5-4-5-4--|
D|----------------------------------------5---------------------------------------5|
A|---------------------------------------------------------------------------------|
E|---------------------------------------------------------------------------------|


e|------------------------------------------------------|
B|------------------------------------------------------|
G|------------------------------------------------------|
D|--10--------------10----------10------10-----10--10---|
A|--8--8-8-8-8-...--8--8-8-8-8--8--8-8--8--8-8--8--8----|
E|------------------------------------------------------|


e|------------------------------------------------------|
B|------------------------------------------------------|
G|------------------------------------------------------|
D|-------------10----------10------10--10---------------|
A|-8-8-8-8-...-8--8-8-8-8--8--8-8---8---8---------------|
E|------------------------------------------------------|


CHORUS

    In the night...
e|--------------------------------------------------------------------------------|
B|--------------------------------------------------------------------------------|
G|-----------------5-------5------------------------------------------------------|
D|--5------5-------5-------3-----------6------6-------8------8------8---8-8-------|
A|--5------5-------3-------3---6--5----6------6-------8------8------8---8-8-------|
E|--3------3---------------------------4------4-------6------6------6---6-6-------|


   Fairytale, life...

(Repeat 2x)
e|--------------------------------------------------------------------------------|
B|--------------------------------------------------------------------------------|
G|--8-----------8----------8------------------------------------------------------|
D|--8-----------8----------8-----------------5----------5---------5---------------|
A|--6--6--6-..--6--6-6-6-6-6-6-6--8-9-8-6----5----------5---------5------------3--|
E|-------------------------------------------3--3--3-..-3-3-3-3-3-3-3-3--3-5-6----|

                           |(T.P&P.M)|                     
e|--------------------------------------------------------------------------------|
B|--------------------------------------------------------------------------------|
G|--5----------5------------------------------------------------------------------|
D|--5----------5------------------------6-------8---------------------------------|
A|--3--3--3-..-3--3-3-3-3--3-5-6-5-3----6-------8---------------------------------|
E|--------------------------------------4-------6---------------------------------|


BRIDGE


                                                |--(sT.P & P.M)----|
e|---------------------------------------------------------------------------------|
B|---------------------------------------------------------------------------------|
G|---------------------------------------------------------------------------------|
D|----x-x-5h7--5h7--5h7--5h7--5h7-7-5-7-5-----------------10--9--------------------|
A|----------------------------------------7-----8--10--12--------10----------------|
E|---------------------------------------------------------------------------------|


                                                |--(sT.P & P.M)-----|
e|---------------------------------------------------------------------------------|
B|---------------------------------------------------------------------------------|
G|---------------------------------------------------------------------------------|
D|----x-x-5h7--5h7--5h7--5h7--5h7-7-5-7-5-----------------10--12--9----------------|
A|----------------------------------------7-----8--10--12--------------------------|
E|---------------------------------------------------------------------------------|


I'm always told...
Repeat VERSE (2x)

Repeat CHORUS



POST-CHORAL LEAD

(2x)
e|---------------------------------------------------------------------------|
B|---------------------------------------------------------------------------|
G|--------------------------------------------------------9------7-----------|
D|---7--9--10----7-7--9--10----7-7-9--10----7-7--9--10-------10-----9--------|
A|---------------------------------------------------------------------------|
E|---------------------------------------------------------------------------|

e|---------------------------------------------------------------------------|
B|---------------------------------------------------------------------------|
G|--------------------------------------------------------9------7--9--------|
D|---7--9--10----7-7--9--10----7-7-9--10----7-7--9--10-------10--------------|
A|---------------------------------------------------------------------------|
E|---------------------------------------------------------------------------|

e|---------------------------------------------------------------------------|
B|---------------------------------------------------------------------------|
G|---------(")--------(")---------9------7--9--10------9--10--9--7--9--10--9-|
D|-----------------------------------10--------------------------------------|
A|---------------------------------------------------------------------------|
E|---------------------------------------------------------------------------|


LEAD (cont.) EASY-TAPPING

     T              T          T            T          T           T                      
e|---------------------------------------------------------------------------|
B|---------------------------------------------------------------------------|
G|--17--10--9--10--17--10------17--9--7--9--17--9-----17--9--5--9--17--9-----|
D|---------------------------------------------------------------------------|
A|---------------------------------------------------------------------------|
E|---------------------------------------------------------------------------|
    T             T   
e|---------------------------------------------------------------------------|
B|---------------------------------------------------------------------------|
G|--14--7--5--7--14--7-------------------------------------------------------|
D|---------------------------------------------------------------------------|
A|---------------------------------------------------------------------------|
E|---------------------------------------------------------------------------|



     T              T          T            T          T           T                      
e|---------------------------------------------------------------------------|
B|---------------------------------------------------------------------------|
G|--17--10--9--10--19--10------17--9--7--9--19--9-----17--9--5--9--19--9-----|
D|---------------------------------------------------------------------------|
A|---------------------------------------------------------------------------|
E|---------------------------------------------------------------------------|
    T             T   
e|---------------------------------------------------------------------------|
B|---------------------------------------------------------------------------|
G|--14--7--5--7--14--7-------------------------------------------------------|
D|---------------------------------------------------------------------------|
A|---------------------------------------------------------------------------|
E|---------------------------------------------------------------------------|



LEAD (cont.) FAST-TAPPING


 (8x)----------|    (8x)------|    (8x)------|     (8x)------|   
    T                T              T               T   
e|---------------------------------------------------------------------------|
B|---------------------------------------------------------------------------|
G|--17--10-9-10------17--9-7-9------17--9-5-9-------14--7-5-7----------------|
D|---------------------------------------------------------------------------|
A|---------------------------------------------------------------------------|
E|---------------------------------------------------------------------------|




   (8x)*-------|    (8x)*-----|    (8x)*-----|     (4x)----------|
    T                T              T               T                      
e|---------------------------------------------------------------------------|
B|---------------------------------------------------------------------------|
G|--17--10-9-10------17--9-7-9------17--9-5-9-------14--7-5-7-5-7-----14--14-|
D|---------------------------------------------------------------------------|
A|---------------------------------------------------------------------------|
E|---------------------------------------------------------------------------|

* Gstring-'T'=19 on 7th repeat of 8x


SOLO

 (2x)
e|---------------------------------------------------------------------------|
B|---------------------------------------------------------------------------|
G|---------------------------------------------------------------------------|
D|----------------------------------------------12---------------------------|
A|---15---12-15---12-15---12-15----12-15-12-15-------------------------------|
E|---------------------------------------------------------------------------|




e|---------------------------------------------------------------------------|
B|---------------------------------------------------------------------------|
G|---------------------------------------------------------------------------|
D|--17b---17p15--17p15--17p15--17p15--17b--17b-r-----------------------------|
A|---------------------------------------------------------------------------|
E|---------------------------------------------------------------------------|




e|---------------------------------------------------------------------------|
B|---------------------------------------------------------------------------|
G|--5-0-0-4-0-0-5-0-0-7-0-0-5-0-0-4-0-0--5-0-0-4-0-0-5-0-0-7-0-5-0-4-0-5-----|
D|---------------------------------------------------------------------------|
A|---------------------------------------------------------------------------|
E|---------------------------------------------------------------------------|



1st Rep.

  (3x)
e|---------------------------------------------------------------------------|
B|---------------------------------------------------------------------------|
G|---17--14--14--16--14--14--17--14--14--16--14--14--17--14--16--14----------|
D|---------------------------------------------------------------------------|
A|---------------------------------------------------------------------------|
E|---------------------------------------------------------------------------|

e|---------------------------------------------------------------------------|
B|---------------------------------------------------------------------------|
G|--21-0-0-17-0-0-21-0-0-19-0-0-17-0-0-16------------------------------------|
D|---------------------------------------------------------------------------|
A|---------------------------------------------------------------------------|
E|---------------------------------------------------------------------------|


2nd Rep. (2 guitars)

[Guitar 1]

 (3x)
e|---------------------------------------------------------------------------|
B|---------------------------------------------------------------------------|
G|---17--14--14--16--14--14--17--14--14--16--14--14--17--14--16--14----------|
D|---------------------------------------------------------------------------|
A|---------------------------------------------------------------------------|
E|---------------------------------------------------------------------------|

e|---------------------------------------------------------------------------|
B|---------------------------------------------------------------------------|
G|--21-0-0-17-0-0-21-0-0-19-0-0-17-0-0-16------------------------------------|
D|---------------------------------------------------------------------------|
A|---------------------------------------------------------------------------|
E|---------------------------------------------------------------------------|

[Guitar 2]

 (3x)
e|---12--8--8--10--8--8--12--8--8--10--8--8--12--8--10--8--------------------|
B|---------------------------------------------------------------------------|
G|---------------------------------------------------------------------------|
D|---------------------------------------------------------------------------|
A|---------------------------------------------------------------------------|
E|---------------------------------------------------------------------------|

e|---------------------------------------------------------------------------|
B|--20-----16-----20-----18-----16-----15------------------------------------|
G|---------------------------------------------------------------------------|
D|---------------------------------------------------------------------------|
A|---------------------------------------------------------------------------|
E|---------------------------------------------------------------------------|

end of repeats

SOLO (continued)

e|---------------15----------------------15-----------------------------------|
B|---17--13--17-----15-------17--13--17-----15--------20--18--20--16--13--16--|
G|---------------------16----------------------16-----------------------------|
D|----------------------------------------------------------------------------|
A|----------------------------------------------------------------------------|
E|----------------------------------------------------------------------------|

e|---------------------------------------16---------------------------------|
B|--20--18--20--16--13--16----20--18--20----20--18--20----------------------|
G|--------------------------------------------------------------------------|
D|--------------------------------------------------------------------------|
A|--------------------------------------------------------------------------|
E|--------------------------------------------------------------------------|

e|------------------------------16------------------------------------------|
B|---20-20-20--18--16--20----------20--18-----------------------------------|
G|--------------------------------------------------------------------------|
D|--------------------------------------------------------------------------|
A|--------------------------------------------------------------------------|
E|--------------------------------------------------------------------------|


Repeat 'Fairytale, life is..' CHORUS section

Then, OUTRO

(4X)
e|-----------------------------------------------|
B|-----------------------------------------------|
G|-----------------------------------------------|
D|----x-x-5h7--5h7--5h7--5h7--5h7-7-5-7-5--------|
A|----------------------------------------7------|
E|-----------------------------------------------|

and

e|-----------------------------------------------|
B|-----------------------------------------------|
G|-----------------------------------------------|
D|---7-------------------------------------------|
A|---7-------------------------------------------|
E|---5-------------------------------------------|

                                     
                                        THE END



 
| P.M  palm muting
| T.P  tremolo picking
|sT.P  slow/'heavy' tremolo
| T    tapping  
| h    hammer-on
| p    pull-off
| b    bend
| r    bend release 
| x    dead note
===============================================================================





Comments


Popular Edguy tabs & chords
All The Clowns Bass Tabs
Ministry Of Saints Intro Chords
The Spirit Will Remain Chords
Down To The Devil Tabs
Final Gate Tabs
No More Foolin 1 Tabs
The Kingdom Tabs
For A Trace Of Life Ukulele
Save Me Ukulele
Scarlet Rose Ukulele


Song lyrics



↑ Back to top | Tablatures and chords are parodies/interpretations of the original songs. You may use it for private study, scholarship, research or language learning purposes only
© 2014 AZChords.com Contact us | Privacy policy | DMCA | Add/correct tabs | Request tabs | Top 50 tabs