» » »

Edgewater, Tres Quatros Tabs (ver.1)

Artists:  A B C D E F G H I J K L M N O P Q R S T U V W X Y Z # 

Tres Quatros Tabs (ver.1)

Edgewater Tabs
Rating:
5/5 (2 votes)
Tres Quatros lessons Tabs too difficult? Try these video lessons and learn fast
                
---------------------------------------------------------------------------

INTRO RIFF

E|------------------------------------|
B|-----3--------3--------3--------3---|
G|--2--2--------2--------2--------2---|
D|--0------0-0------0-0-------0-0-----|
A|--0---------------------------------|
D|------------------------------------|

E|---------------------------------|
B|--2/3-3-------3-------3-------3--|
G|--2-2-2-------2-------2-------2--|
D|----------0-0----0-0-----0-0-----|
A|---------------------------------|
D|---------------------------------|

E|-------------------0------0------|
B|--2/3-3-----3------3------3------| 
G|--2-2-2-----2--------------------|2x
D|--------0-0----0-0----0-0--------|
A|---------------------------------| 
D|---------------------------------|

------------------------------------------
1 Verse Riff
Recognize
The position of the moon
And the waves are high
And Earth begins to move
And I want to see
The skin that I am in will
E|------------------------------------|
B|--2/3-3------3-3-----0-0------0-0---|
G|--2-2-2------2-2-----2-2------2-2---|
D|---------0-0------------------------|
A|-----------------2-2------0-0-------|
D|------------------------------------|

0:35-0:39
E|---------------0-0--------------------|
B|--2/3-3--------3-3------0-0-----0-0---|
G|--2-2-2-----------------2-2-----2-2---|
D|-----------0-0------------------------|
A|--------------------2-2-----0-0-------|
D|--------------------------------------|

stretch and shape And change into something
E|-----------------------------------------0--------|
B|-------0-0------0-0-------0-0--2/3-3-3-3-3--2/3-2-|
G|-------2-2------2-2-------2-2--2-2-2-2-2-2--2-2-2-|
D|-----------------------------------------0--------|
A|--------------------------------------------------|
D|--2-2-------3-3------2-2--------------------------|

0:47-0:54
E|----------------------------------------------0---------|
B|--------0-0-------0--------0-0--2/3-3-------3-3---2/3-2-|
G|--------2-2-------2--------2-2--2-2-2-------2-2---2-2-2-|
D|---------------------------------------0-0----0---------|
A|--------------------------------------------------------|
D|--2-2-------3-3------2-2--------------------------------|

                                                /----x5----\
E|--------------------------------------|---0--|-----0------|
B|-----3-------3---2--3/5-5-5-5-5-5-5---|---0--|-----0------|
G|-----2-------2---2--2/2-2-2-2-2-2-2---|---2--|-----2------|
D|--0----0-0----------------------------|-0----|-0-0--------|
A|--------------------------------------|------|------------|
D|--------------------------------------|------|------------|

------------------------------------------------------
Breakdown riff

E|---------------------|
B|---------------------|
G|---7-----------------|
D|---7--5-1------------|
A|---5--5/1------5-7---|
D|------5-1--5-7-------|

E|-------------------------------------------------|\
B|-------------------------------------------------| \
G|--------7---7-7-----------7----7-7---------------| |x4
D|--------7---7-7--5--------7----7-7---------------| |
A|---0----5---5-5--5---0----5----5-5------5-7------| /
D|---0-0-----------5---0-0------------5-7----------|/
P.M. . .               . .     

------------------------------------------

2,3 Verse Riff
E|-----------------------------------------------|
B|-----------------------------------------------|
G|--------x-x-x-x--7-------x-x-x-x--7------------|x3
D|-----0--x-x-x-x--x-------x-x-x-x--x-----5------|
A|-----0--x-x-x-x--5-------x-x-x-x--5-----5------| 
D|-----0-------------5--0-------------0-0-5------|
P.M.   .                .             . .

E|--------------------------------------------------|
B|--------------------------------------------------|
G|----------x-x-x-x--7-----------------14-14-14-14--|
D|-------0--x-x-x-x--x------5-5-5-5-5---x--x--x--x--|
A|-------0--x-x-x-x--5------5-5-5-5-5--12-12-12-12--|
D|-------0---------------5--5-5-5-5-5---------------|
P.M.    .
----------------------------------------------------------------------

Chorus Riff

E|----------------------------------------------|
B|----------------------------------------------| 
G|----------------------------------------------|x3
D|--9-9-9-9---5-5-5-5--0-0-0-0--7-7-7-7---------|
A|--9-9-9-9---5-5-5-5--0-0-0-0--7-7-7-7---------| 
D|--9-9-9-9---5-5-5-5--0-0-0-0--7-7-7-7---------|

E|------------------------------------------|
B|------------------------------------------|
G|------------------------------------------|
D|--9-9-9-9--5-5-5-5--0-0-0-0--0-7-7-7-7-7--|
A|--x-x-x-x--5-5-5-5--0-0-0-0--0/x-x-x-x-x--|
D|--9-9-9-9--5-5-5-5--0-0-0-0--0-7-7-7-7-7--|


-------------------------------------------

Post-chorus Riff

E|-----------------------------------------------|
B|-----------------------------------------------| 
G|-----------------7-7-7-7-----------------------|x3
D|-----5-5-5-5-----7-7-7-7-----5-5-5-5-7-7-7-7---|
A|-----5-5-5-5-----5-5-5-5-----5-5-5-5/7-7-7-7---| 
D|-----5-5-5-5--0-----------0--5-5-5-5-7-7-7-7---|
P.M.            .           .

                                 Use wah-wah pedal
E|-----------------------|-------------------------------|
B|-----------------------|-------------------------------|
G|---------------7-7-7-7-|-------------------------------|
D|--5-5-5-5------7-7-7-7-|-5-5-5-5-5-5-5/12-12-12-12-----|
A|--5-5-5-5------5-5-5-5-|-------------------------------|
D|--5-5-5-5--0-----------|-------------------------------|
             .
-------------------------------------------------------------------------

Bridge Riff
3:08-4:30

3:08-3:24

1 guitar(Let ring)
E|-------------|
B|-2-3-2--0----|
G|-2-2-2--0----|
D|-------------|
A|-------------|
D|-------------|
2 guitar(Let ring)
E|----------------|
B|---3--3--0--0---|
G|-2--2--2---0--0-|
D|----------------|
A|----------------|
D|----------------|

1 guitar(Let ring)
E|-------------|
B|-2-3-2--0----|
G|-2-2-2--0----|
D|-------------|
A|-------------|
D|-------------|
2 guitar(Let ring)
E|------------------|
B|---3--3--0--0-----|
G|-2--2--2---0--0---|
D|------------------|
A|------------------|
D|------------------|

1 guitar(Let ring)    /3:23
E|----------|-------|/
B|-2-3-2--0-|-3---3-|
G|-2-2-2--0-|-2-2---|
D|----------|-------|
A|----------|-------|
D|----------|-------|

2 guitar(Let ring)
E|------------------|
B|---3--3---7*--0---|
G|-2--2--2----7*--0-|
D|------------------|
A|------------------|
D|------------------|

3:25-3:48
1 Guitar
|E|--------------------------------------|
|B|--3-----------------------------------|
|G|--2-----------------------------------|
|D|--0-0---------0-----------0-----------|
|A|--0----0----------0-----------0-------|
|D|--------------------------------------|
|      .  .      .   .       .   .                    (X5)-03:33
|E|------------------0------------------------------|------|
|B|------------------3-----------------3---3p2-3h5--|-3----|
|G|-------------2----2-----2------------------------|---2--|
|D|---------0----(0)----0----(0)-0-------0----------|------|
|A|-------------------------------------------------|------|
|D|-------------------------------------------------|------|

1 guitar(Let ring)
E|----------|
B|-2-3-2--0-|
G|-2-2-2--0-|  (x3)
D|----------|
A|----------|
D|----------|

2 guitar(Let ring)
E|-----------------|
B|---3--3--7*---0--|
G|-2--2--2---7*--0-|  (x3)
D|-----------------|
A|-----------------|
D|-----------------|

3:49-4:27
E|-------------------------------------|
B|-----2-------2-------3------2/3-3----|
G|---2---2---2---2---2---2--2----------|
D|-0-------0-------0------0------------|(x3)
A|-------------------------------------|
D|-------------------------------------|

E|------------------0----0-------|
B|-----2-------2----2------3-----|
G|---2---2---2---2--3--------2---|
D|-0-------0--------0------------|
A|-------------------------------|
D|-------------------------------|

1 Guitar
E|--0----|
B|--2----|
G|--3----|
D|-------|
A|-------|
D|-------|

2 Guitar

Chreshendo!
E|-------|---------|
B|-------|---------|
G|-------|---------|
D|--5----|---------|
A|--5----|-----5-7-|
D|--5----|-5-7-----|
P.M.......
---------------------------------------------------------------------------

Lyrics:

INTRO RIFF

1 VERSE RIFF
Recognize the position of the moon
And the waves are high
The earth begins to move and I want to see
The skin that I am in will stretch and shape
And change into something
Overnight look at where we've been
And so out of breath the ocean keeps on moving
So keep the pace and bear the weight you're given
And don't waste the blaze of the day
And I find

BREAKDOWN RIFF
That I want you to go

2 VERSE RIFF
Lifetime pleasure is the passion
Don't waste your time
Look at what you after
And I can see the stars that shine on me
It's the shape of hope

CHORUS RIFF
And I want you to go
And I want you to stay awake
And I know that I'll find a way that you can see what I mean
It's the shape of hope

POST-CHORUS RIFF
So look out
And everything I want to see
And everything you meant to me
And everything we hold is gone

3 VERSE RIFF
Yesterday the breath you took from me
Was it out of shame?
Or was it just a dream?
Well I find in me the destiny to be
It's the shape of hope

BRIDGE RIFF
Just hold me now
Just hold me down
Just hold me down, and take away the beauty of
Just hold me down
'Cause I can see the skin I'm in is stretching and shaping and changing and changing
And I said it's over all over

BREAKDOWN RIFF
I want you to go
Lifetime pleasure is the passion
It's a waste of time


Key
----------------
L - tied note
x - dead note
g - grace note
(n) - ghost note
> - accentuded note
NH - natural harmonic
AH - artificial harmonic
TH - tapped harmonic
SH - semi harmonic
PH - pitch harmonic
h - hammer on
p - pull off
b - bend
br - bendRelease
pb - preBend
pbr - preBendRelease
brb - bendReleaseBend
\n/ - tremolo bar dip
\n - tremolo bar dive
-/n - tremolo bar Release up
/n\ - tremolo bar inverted dip
/n - tremolo bar return
-\n - tremolo bar Release down
S - shift slide
s - legato slide
/ -  slide into from below or out of upwards
\ -  slide into from above or out of downwards
~ - vibrato
W - wide vibrato
tr - trill
TP - tremolo picking
T - tapping
S - slap
P - pop
< - fade in
^ - brush up
v - brush down
            
Submit corrections

comments powered by Disqus
↑ Back to top | Edgewater Tabs for Tres Quatros. Lyrics for acoustic guitar and electric guitar. Tablatures and chords are parodies/interpretations of the original songs. You may use it for private study, scholarship, research or language learning purposes only