>
 >
Sweet Suffocation

Sweet Suffocation Guitar Tabs

Edgewater - Sweet Suffocation chords, tabs, tablatures, lyrics

Guitar lessons | Add/correct | Request | Top 50 tabs Artists:  A B C D E F G H I J K L M N O P Q R S T U V W X Y Z 0-9

Sweet Suffocation Guitar Tabs – Edgewater

CD, Sheet music, Poster

Do you like Sweet Suffocation? Share with your friends now
Tabs
Edgewater - sweet suffocation

Tuning - Drop D (E B G D A D)

Intro  0:00 - 0:10
E--------------------------------------------------------------------------|
B--------------------------------------------------------------------------|
G-----------------------------0--------------------------------------------|
D--------------------------------------------------------------------------|
A--------------------------------------------------------------------------|
D--1p0-0-1-0-0-1-0--0-1h3p1p0----1p0-0-1-0-0-1-0--0-1h3p1p0----------------|

E--------------------------------------------------------------------------|
B--------------------------------------------------------------------------|
G------------------------------0-------------------------------------------|
D--------------------------------------------------------------------------|
A--------------------------------------------------------------------------|
D--1p0-0-1-0-0-1-0--0-1h3p1p0------1p0-0-1-0--0-1h3p1p0--------------------|


Verse

E--------------------------------------------------------------------------|
B--------------------------------------------------------------------------|
G--------------------------------------------------------------------------|
D--------------------------------------------------------------------------|
A--------------------------------------------------------------------------|
D--1p0-0-1-0-0-1-0--0-1h3p1p0----1p0-0-1-0-0-1-0--0-1h3p1p0----------------|
P.M...............................................................

E--------------------------------------------------------------------------|
B--------------------------------------------------------------------------|
G--------------------------------------------------------------------------|
D--------------------------------------------------------------------------|
A--------------------------------------------------------------------------|
D--1p0-0-1-0-0-1-0--0-1h3p1p0------1p0-0-1-0--0-1h3p1p0--------------------|
P.M...............................................................

0:11 - 0:21

Pre-chorus

0:22 - 0:33

E--------------------------------------------------------------------------|
B--------------------------------------------------------------------------|
G--------------------------------------------------------------------------|
D-1-0-0-1-0--0--1-0-0-1---3---1-0------------------------------------------|(x4)
A-1p0-0-1-0--0--1-0-0-1-h-3p--1p0------------------------------------------|
D-1-0-0-1-0--0--1-0-0-1---3---1-0------------------------------------------|

Chorus

E--------------------------------------------------------------------------|
B--------------------------------------------------------------------------|
G--------------------------------------------------------------------------|
D-5---------8----------1--0-0-1-0------------------------------------------|
A-5-(x8)----8-(x8)-----1p-0-0-1-0--(x2)------------------------------------|
D-5---------8----------1--0-0-1-0------------------------------------------|

1:34 - 1:44

E--------------------------------------------------------------------------|
B--------------------------------------------------------------------------|
G--------------------------------------------------------------------------|
D--------------------------------------------------------------------------|
A--------------------------------------------------------------------------|
D-5-5-5-5-5-5-5-55-5-5-5/8-8-8-8-8-8-8/10-10-10-10-10-10-10----------------|
P.M............................................................

Bridge 1:43-2:05
E--------------------------------------------------------------------------|
B------1--------1----------1h3p1------1--------1------1------1h3p1---------|
G--3-----3--3-----3--3------------3-----3--3-----3--3---3--3---------------|
D--------------------------------------------------------------------------|
A--------------------------------------------------------------------------|
D--------------------------------------------------------------------------|
   .     .  .     .  .            .     .  .     .  .   .  .
E--------------------------------------------------------------------------|
B------1--------1------1-----1h3p1----1------1-----------------------------|
G--3-----3--3-----3--3--3--3--------3---3--3-----3--3--0--3--3-------------|
D----------------------------------------------------------------3-3-3-3---|
A--------------------------------------------------------------------------|
D--------------------------------------------------------------------------|
   .     .  .     .  .  .  .        .   .  .     .  .     .  .

E--------------------------------------------------------------------------|
B------1--------1----------1h3p1------1--------1----------1------1h3p1-----|
G--3-----3--3-----3--3---------------3-----3--3-----3--3----3--3-----------|
D--------------------------------------------------------------------------|
A--------------------------------------------------------------------------|
D--------------------------------------------------------------------------|
   .     .  .     .  .               .     .  .     .  .    .  .
E--------------------------------------------------------------------------|
B------1--------1------1--------1h3p1-----1--------/6t/10t-----------------|
G--3-----3--3-----3--3---3--3-----------3-----3--3-------------------------|
D--------------------------------------------------------------------------|
A--------------------------------------------------------------------------|
D--------------------------------------------------------------------------|
   .     .  .     .  .   .  .           .     .  .  
 
2:06-2:39
E------------------------------------------------------------------------|
B------------------------------------------------------------------------|
G------------------------------------------------------------------------|X4
D-1-0-0-0-1-1-3-3-3-3-3-3-3--5-3-3-3-5-5-8-8-8-8-8-8-8-------------------|
A-1p0-0-0-1-1/3-3-3-3-3-3-3--5p3-3-3-5-5/8-8-8-8-8-8-8-------------------|
D-1-0-0-0-1-1-3-3-3-3-3-3-3--5-3-3-3-5-5-8-8-8-8-8-8-8-------------------|

2:28-2:39
E--------------------------------------------------------------------------|
B--------------------------------------------------------------------------|
G--------------------------------------------------------------------------|
D-1-0-0-0-1--1-0-0-0-1--1-0-0-0-1--1-0-0-0-1--1-0-0-0-1--------------------|
A-1p0-0-0-1--1p0-0-0-1--1p0-0-0-1--1p0-0-0-1--1p0-0-0-1--------------------|
E-1-0-0-0-1--1-0-0-0-1--1-0-0-0-1--1-0-0-0-1--1-0-0-0-1--------------------|

Lyrics:
Crawling under lost in a perfect sin
What's my addiction to breathe
I will sleep and I will breath and I will scream
'Cause that's a part of me
Such a sweet suffocation
You were the victim lost in your innocence
What's you ambition to breath
And I will sleep and I will breath and I will scream
'Cause that's a part of me
Such a sweet suffocation it's my addiction
Such a sweet suffocation it's my religion
It's cold inside
What's it like to take apart me?
To lead you wrong to kill your dreams just wake up please


Key

h - hammer on
p - pull off
b - bend
~ - vibrato
x - dead note
/ -  slide into from below or out of upwards
\ -  slide into from above or out of downwards
. (P.M) - Palm Mute
t - tremolo





Comments


Popular Edgewater tabs & chords
Apples And Oranges Tabs
Break Me Out Tabs
Eyes Wired Shut Tabs
I Won't Back Down Tabs
Inhale Tabs
Lifter 1 Tabs
Lifter 3 Tabs
Ode To You Tabs
Qutter Tabs
Story Of.. Tabs


Song lyrics



↑ Back to top | Tablatures and chords are parodies/interpretations of the original songs. You may use it for private study, scholarship, research or language learning purposes only
© 2014 AZChords.com Contact us | Privacy policy | DMCA | Add/correct tabs | Request tabs | Top 50 tabs