» » »

Edgewater, One Perfect Something Tabs (ver.1)

Artists:  A B C D E F G H I J K L M N O P Q R S T U V W X Y Z # 

One Perfect Something Tabs (ver.1)

Edgewater Tabs
 Rating:
4.2/5 (5 votes)
One Perfect Something lessons Tabs too difficult? Try these video lessons and learn fast
1
                I will complete this song later

Intro

1 Guitar
D|------------9-----|
A|--7--7-7--7-7-7---| Play this riff many times!
F|--7--7--7--7------|
C|------------------| 
G|------------------|
C|------------------|

2 Guitar
D|-------------------------------------------|------------------------------|
A|-------------------------------------------|------------------------------|
F|-------------------------------------------|------------------------------|
C|---4-0--0-0--4--4-4-------4p0-0-2-2/4--4-4-|-0р2-2-2-2--2/4-4-4-4-2/4-4---|
G|-2-----2-------2----/2-(2)-----------------|------------------------------|
C|-------------------------------------------|------------------------------|

2 Guitar
D|----------------------|         |-------------------------------|
A|----------------------|         |-------------------------------|
F|----------------------|x5, then |--------9--9--9--9--9--9--9----|
C|--0-0-0--0-0-0--0-0---|         |-0-0-0-/x--x--x--x--x--x--x----|
G|--0-0-0--0-0-0--0-0---|         |-0-0-0--11-11-11-11-11-11-11---|
C|--0-0-0--0-0-0--0-0---|         |-0-0-0-------------------------|
    . . .  . . .  . .               . . .                
Verse

1 Guitar
D|-----------------9-----|
A|--7--7-7--7-7-7--7-7---| Play this riff diring all 1 verse!
F|--7--7-7--7-7-7--7-7---|
C|-----------------------| 
G|-----------------------|
C|-----------------------|

2 Guitar
          (x4)            (x4)
D|----------------------|-----------------------|         
A|----------------------|-----------------------|           
F|----------------------|-----------------------|   
C|--0-0-0--0-0-0--0-0---|-3-2-0-0--0-0-0--0-0---|           
G|--0-0-0--0-0-0--0-0---|-3p2p0-0--0-0-0--0-0---|   
C|--0-0-0--0-0-0--0-0---|-3-2-0-0--0-0-0--0-0---|  
    . . .  . . .  . .              . . .  . .

D|-----------------------|         
A|-----------------------|           
F|-----------------------|   
C|--3-2-0-0--x-x-x--x-x--|(X3)           
G|--3p2p0-0--x-x-x--x-x--|   
C|--3-2-0-0--x-x-x--x-x--|
             
D|------------------------------------------|         
A|------------------------------------------|           
F|------------------------------------------|   
C|--3-2-0-0---------------------------------|           
G|--3p2p0-0---------------------------------|   
C|--3-2-0-0--(3)-(3)-(3)--(3)-(3)-(3)-(3)---|
( ) - Natural Harmonics

Pre-chorus
0:56-1:17
1 Guitar
D|--------------------------|--------------------------| 
A|--------------------------|--------------------------| 
F|--------------------------|--------------------------| 
C|---0--(0)---9---5-5-5-5---|-0---9---7-9--7-9---5-7---| 
G|---0--(0)---9---5-5-5-5---|-0---9---7-9--7-9---5-7---| 
C|---0--(0)---9---5-5-5-5---|-0---9---7-9--7-9---5-7---| 
    Let ring                       \
                                    \2 Guitar plays here this chords
                                    D|--------------|
                                    A|--------------|
                                    F|--------------|
                                    C|-5-12--7-14---|
                                    G|-x/x---x/x----|
                                    C|-5-12--7-14---|
Then play this riff
D|--------------------|
A|--------------------|
F|--------------------|
C|--0-0-0--0--0-0-0---|
G|--0-0-0--0--0-0-0---|
C|--0-0-0--0--0-0-0---|
            
Submit corrections

comments powered by Disqus
↑ Back to top | Edgewater Tabs for One Perfect Something. Lyrics for acoustic guitar and electric guitar. 1 Tablatures and chords are parodies/interpretations of the original songs. You may use it for private study, scholarship, research or language learning purposes only