>
 >
Ode To You

Ode To You Guitar Tabs

Edgewater - Ode To You chords, tabs, tablatures, lyrics

Guitar lessons | Add/correct | Request | Top 50 tabs Artists:  A B C D E F G H I J K L M N O P Q R S T U V W X Y Z 0-9

Ode To You Guitar Tabs – Edgewater

CD, Sheet music, Poster

Do you like Ode To You? Share with your friends now
Tabs

Intro/Verse
0:00-0:23
1gtr
E|--------------------------------------------------------------|\
B|--------------------------------------------------------------| \
G|-------------------6----6-------------------------------------|  \
D|--------6--6--6h7-----7----7-------------6--6--6p4/2-4-2------|   \
A|--4-----4-------0---------------4--------4-----0---------4----|    \
D|--4-(4)-------------------------4-(4)-(4)---------------------|     \
                                                                      |(x2)
                                                                      |
E|--------------------------------------------------------------|     / 
B|--------------------------------------------------------------|    /
G|----------------------6----6----------------------------------|   /
D|-----------6--6--6h7-----7----7------------6--6--6p4/2-4-2----|  /
A|--4--------4-------0--------------4--------4-----0---------4--| /
D|--4-(4)-(4)-----------------------4-(4)-(4)-------------------|/

0:24-0:29
1gtr
E|----------------------------------------------------|
B|--------------------5-7p5------------------------0--| 
G|------------------6---6----------------------6------|  
D|--------6--6--6h7-----------------(6)--6-6h7---7----|   
A|--4-----4-------0-----------------------------------|    
D|--4-(4)--------------------(4)-(4)------------------|

0:30-0:35
1gtr
E|-----------------------------------------------------|
B|--------------------5-7p5----------------------------| 
G|------------------6---6---------------------6---6----|  
D|--------6--6--6h7-----------------(6)-6-6h7---7---7--|   
A|--4-----4-------0------------------------------------|    
D|--4-(4)--------------------(4)-(4)-------------------|

0:39-0:47
1gtr
Let Ring
E|-----------------------------------------------------|
B|------------5-----------5-------------------5--------|
G|------6---6---6---6---6---6-----------6---6---6------|
D|----7---7-------7---7-------7---7---7---7-------(7)--|
A|-----------------------------------------------------|
D|-----------------------------------------------------|
0:50-1:01
1gtr
E|-----------------------------------------------------|
B|--0-----0-------------2----------------2-----2-------|
G|----2-----2---2---2-----2----2-----------------------|
D|------2-----2---2---2-----2----(2)-------------------|
A|-----------------------------------------------------|
D|-----------------------------------------------------|

Repeat it all 2 times
then

1gtr
E|--------------------------------------------------------|
B|--------------------------------------------------------|
G|------------------------6-4-----6-4-----6-4-----6-4-----|
D|---6-6--6-6--6-6--6-6---7-6--6--7-6--6--7-6--6--7-6--6--|
A|--0-0--0-0--0-0--0-0----0-0-0---0-0-0---0-0-0---0-0-0---|
D|--------------------------------------------------------|

Chorus(Distorted)
1gtr                                                             /---2x   
E|------------|--------------------------------------------------|
B|------------|--------------------------------------------------|
G|------------|--------------------------------------------------|
D|--7--2--0---|--0--0-0--0-0--0--0-0-0---------------------------|
A|--7--2--0---|--0--0-0--0-0--0--0-0-0---------------------------|
D|--7--2--0---|--0--0-0--0-0--0--0-0-0---------------------------|
              |                         \Play this chords at the same time!
    2gtr------|                         /            
             E|---------------------------------------------|
             B|---------------------------------------------|
             G|--6--6-2--2-6--6-6-6-7-7---------------------|
             D|--x--x-x--x-x--x-x-x/x-x---------------------|
             A|--4--4-0--0-4--4-4-4-5-5---------------------|
             E|---------------------------------------------|
1gtr                                                             /---2x   
E|------------|--------------------------------------------------|
B|------------|--------------------------------------------------|
G|------------|--------------------------------------------------|
D|--7--2--0---|--2--2-2--2-2--2--2-2-2---------------------------|
A|--7--2--0---|--2--2-2--2-2--2--2-2-2---------------------------|
D|--7--2--0---|--2--2-2--2-2--2--2-2-2---------------------------|
              |                         \Play this chords at the same time!
    2gtr------|                         /            
             E|---------------------------------------------|
             B|---------------------------------------------|
             G|--9--9-11-9-9--9-9-9-11-11-------------------|
             D|--x--x-x--x-x--x-x-x/x--x--------------------|
             A|--7--7-9--7-7--7-7-7-9--9--------------------|
             E|---------------------------------------------|


2:36-2:55(Distorted)
(Let Ring)
E|-----------------------------------------|
B|-----------------------------------------|
G|-----------------------------------------|
D|-7-2-4-0--7-2-4-0--7-2-4-0--7-2-4-0--7---|
A|-7-2-4-0--7-2-4-0--7-2-4-0--7-2-4-0--7---|
D|-7-2-4-0--7-2-4-0--7-2-4-0--7-2-4-0--7---|


2:56-3:44(Distorted)                                3:45-to the end
1Guitar                                                (Let Ring)
E|-----------------------------------------|         E|----------|
B|-----------------------------------------|         B|----------|
G|-----------------------------------------|(x8)     G|----------|
D|-7-7-7-7-7-7-7-7--4-4-4-4--2-2-2-2-------|         D|-0--------|
A|-7-7-7-7-7-7-7-7--4-4-4-4--2-2-2-2-------|         A|-0--------|
D|-7-7-7-7-7-7-7-7--4-4-4-4--2-2-2-2-------|         D|-0--------|

2 Guitar(Distorted)
3:20-3:40
E|------------------------|
B|------------------------|
G|--------------6---6-----|(x7)
D|--4-4/6-6-6h7---7---7---|
A|------------------------|
D|------------------------|





Comments


Popular Edgewater tabs & chords
Caught In The Moment Tabs
Circles Tabs
Eyes Wired Shut Tabs
Inhale Tabs
Lifter 3 Tabs
One Perfect Something Tabs
Qutter Tabs
Science Of It All Tabs
Story Of.. Tabs
Tres Quatros Tabs


Song lyrics



↑ Back to top | Tablatures and chords are parodies/interpretations of the original songs. You may use it for private study, scholarship, research or language learning purposes only
© 2014 AZChords.com Contact us | Privacy policy | DMCA | Add/correct tabs | Request tabs | Top 50 tabs