>
 >
Lifter 1

Lifter 1 Guitar Tabs

Edgewater - Lifter 1 chords, tabs, tablatures, lyrics

Guitar lessons | Add/correct | Request | Top 50 tabs Artists:  A B C D E F G H I J K L M N O P Q R S T U V W X Y Z 0-9

Lifter 1 Guitar Tabs – Edgewater

CD, Sheet music, Poster

Do you like Lifter 1? Share with your friends now
TabsTabs v2Tabs v3
intro/verse
e(--3333333333333333333344446663333-)(--3333333333333333-)
b(--4444444444444444444444444444444-)(-------------------)
g(----------------------------------)(-------------------)
d(----------------------------------)(-------------------)
a(----------------------------------)(-------------------)
D(----------------------------------)(-------------------)

chorus     (x3)                                lead
e(-------------------)(-------------------)(--4-4-4-3-)
b(-------------------)(-------------------)(--4-4-4-3-)
g(-------------------)(--4444444422222222-)(----------)
d(--6666666633333333-)(--4444444422222222-)(----------)
a(--6666666633333333-)(--2222222200000000-)(----------)
D(--6666666633333333-)(-------------------)(----------)

second verse
e(------------------------------------------------------)
b(------------------------------------------------------)
g(------------------------------------------------------)
d(--5-5-5-5-5555-3-3-3-3-3333-5-5-5-5-5555-7-7-7-7-7777-)
a(--5-5-5-5-5555-3-3-3-3-3333-5-5-5-5-5555-7-7-7-7-7777-)
D(--5-5-5-5-5555-3-3-3-3-3333-5-5-5-5-5555-7-7-7-7-7777-)
  pm. . . . .... . . . . .... . . . . .... . . . . ....
solo x2
e(--------------4---6---6---8-44444444-11111111p0-)
b(--/44444444-4---4---4---4-----------------------)
g(------------------------------------------------)
d(------------------------------------------------)
a(------------------------------------------------)
D(------------------------------------------------)

second solo x2
e(--------------4---6---6---8-44444444-11111111p0-)  (--------)
b(--/44444444-4---4---4---4-----------------------)  (--------)
g(------------------------------------------------)  (--17b18-)
d(------------------------------------------------)  (--------)
a(------------------------------------------------)  (--------)
D(------------------------------------------------)  (--------)





Comments


Popular Edgewater tabs & chords
Apples And Oranges Tabs
Caught In The Moment Tabs
Circles Tabs
Engage Tabs
Eyes Wired Shut 1 Tabs
Lifter 3 Tabs
Ode To You Tabs
One Perfect Something Tabs
Story Of.. Tabs
Sweet Suffocation Tabs


Song lyrics



↑ Back to top | Tablatures and chords are parodies/interpretations of the original songs. You may use it for private study, scholarship, research or language learning purposes only
© 2014 AZChords.com Contact us | Privacy policy | DMCA | Add/correct tabs | Request tabs | Top 50 tabs