» » »

Edgewater, Lifter Tabs (ver.1)

Artists:  A B C D E F G H I J K L M N O P Q R S T U V W X Y Z # 

Lifter Tabs (ver.1)

Edgewater Tabs
 Rating:
4.3/5 (6 votes)
Lifter lessons Tabs too difficult? Try these video lessons and learn fast
                
Edgewater - Lifter (South Of Sideways Version)


Tuned to Drop C (C-G-C-F-A-D)


Intro

D|--5-5-5-5-5-5-5-5-5--|
A|--6-6-6-6-6-6-6-6-6--|
F|---------------------|
C|---------------------|
G|---------------------|
C|---------------------|

D|--5-5-5-5-5-5-5-5-5-5-5-5-5-5-5-5-5-5-5-5-5-5---5-5|
A|--6-6-6-6-6-6-6-6-6-6-6-6-6-6-6-6-6-6-6-6-6---6-6-6|
F|--3-3-3-3-3-3-3-3-3-0-0-0-0-0-0-0-0----------------|
C|------------------------------------0-0-0-0-----0-0|
G|---------------------------------------------------|
C|---------------------------------------------------|

D|--5-5-5-5-5-5-5-5-5-5-5-5-5-5-5-xxxx-|
A|--6-6-6-6-6-6-6-6-6-6-6-6-6-6-6-xxxx-|
F|--3-3-3-3-3-3-3-3-3-0-0-0-0-0-0-xxxx-|
C|--0-0-0-0-0-0-0-0-0-0-0-0-0-0-0-xxxx-|
G|-------------------------------------|
C|-------------------------------------|


Chorus (Distorted)


D|-------------------------------------------------------------------------|
A|-------------------------------------------------------------------------|
F|-2-2-2-2-2-2-2-2-5-5-5-5-5-5-5-5-10-10-10-10-10-10-10-10-7-7-7-7-7-7-7-7-|
C|-0-0-0-0-0-0-0-0-3-3-3-5-5-5-5-5-8--8--8--8--8--8--8--8--5-5-5-5-5-5-5-5-|
G|-0-0-0-0-0-0-0-0-3-3-3-5-5-5-5-5-8--8--8--8--8--8--8--8--5-5-5-5-5-5-5-5-|
C|-0-0-0-0-0-0-0-0-3-3-3-3-3-3-3-3-8--8--8--8--8--8--8--8--5-5-5-5-5-5-5-5-|


Bridge:
		     x2			x2   x2
D|-------------------||-----------------|||
A|-------------------||-----------------|||
F|-5-5-5-5-5-5-5-5-5-||-3-3-3-3-3-3-3-3-|||
C|-3-3-3-3-3-3-3-3-3-||-1-1-1-1-1-1-1-1-|||
G|-3-3-3-3-3-3-3-3-3-||-1-1-1-1-1-1-1-1-|||
C|-3-3-3-3-3-3-3-3-3-||-1-1-1-1-1-1-1-1-|||

Song Change TO NEW MAIN

D|-----------------------------------------------------------------------|
A|-----------------------------------------------------------------------|
F|-10-10-10-10-101010-10-7-7-7-7-777-5-5-2-2-2-2-222-2-2-5-5-5-5-555-5-5-|
C|-8--8--8--8--888-8--8--5-5-5-5-555-5-5-0-0-0-0-000-0-0-3-3-3-3-333-3-3-|
G|-8--8--8--8--888-8--8--5-5-5-5-555-5-5-0-0-0-0-000-0-0-3-3-3-3-333-3-3-|
C|-8--8--8--8--888-8--8--5-5-5-5-555-5-5-0-0-0-0-000-0-0-3-3-3-3-333-3-3-|


Chorus (Distorted)


D|-------------------------------------------------------------------------|
A|-------------------------------------------------------------------------|
F|-2-2-2-2-2-2-2-2-5-5-5-5-5-5-5-5-10-10-10-10-10-10-10-10-7-7-7-7-7-7-7-7-|
C|-0-0-0-0-0-0-0-0-3-3-3-5-5-5-5-5-8--8--8--8--8--8--8--8--5-5-5-5-5-5-5-5-|
G|-0-0-0-0-0-0-0-0-3-3-3-5-5-5-5-5-8--8--8--8--8--8--8--8--5-5-5-5-5-5-5-5-|
C|-0-0-0-0-0-0-0-0-3-3-3-3-3-3-3-3-8--8--8--8--8--8--8--8--5-5-5-5-5-5-5-5-|


Bridge:
		     x2			x2   x2
D|-------------------||-----------------|||
A|-------------------||-----------------|||
F|-5-5-5-5-5-5-5-5-5-||-3-3-3-3-3-3-3-3-|||
C|-3-3-3-3-3-3-3-3-3-||-1-1-1-1-1-1-1-1-|||
G|-3-3-3-3-3-3-3-3-3-||-1-1-1-1-1-1-1-1-|||
C|-3-3-3-3-3-3-3-3-3-||-1-1-1-1-1-1-1-1-|||

Solo #1

D|---------------------------------------------------------------------------|
A|---------------------------------------------------------------------------|
F|-/10-10-10-10-15-15-10-15-10-15-15~----------------------------------------|
C|-----------------------------------12-~----10~-----12-12-12-12-10-10-10-10-|
G|---------------------------------------------------------------------------|
C|---------------------------------------------------------------------------|

D|---------------------------------------------------------------------------|
A|---------------------------------------------------------------------------|
F|-/10-10-10-10-15-15-10-15-10-15-15~----------------------------------------|
C|-----------------------------------12-~----10~-----12-12-12-12-15-15-15-15-|
G|---------------------------------------------------------------------------|
C|---------------------------------------------------------------------------|

Bridge:
		     x2			x2   x2
D|-------------------||-----------------|||
A|-------------------||-----------------|||
F|-5-5-5-5-5-5-5-5-5-||-3-3-3-3-3-3-3-3-|||
C|-3-3-3-3-3-3-3-3-3-||-1-1-1-1-1-1-1-1-|||
G|-3-3-3-3-3-3-3-3-3-||-1-1-1-1-1-1-1-1-|||
C|-3-3-3-3-3-3-3-3-3-||-1-1-1-1-1-1-1-1-|||

Solo #2
D|---------------------------------------------------------------------------|
A|---------------------------------------------------------------------------|
F|-/10-10-10-10-15-15-10-15-10-15-15~----------------------------------------|
C|-----------------------------------12------10~-----12-12-12-12-10-10-10-10-|
G|---------------------------------------------------------------------------|
C|---------------------------------------------------------------------------|

D|---------------------------------------------------------------------------|
A|---------------------------------------------------------------------------|
F|-/10-10-10-10-15-15-10-15-10-15-15~----------------------------------------|
C|-----------------------------------12-~----10~-----12-12-12-12-15-15-15-15-|
G|---------------------------------------------------------------------------|
C|---------------------------------------------------------------------------|

Out

D|-------------------------------------------------------------------------|
A|-------------------------------------------------------------------------|
F|-2-2-2-2-222-2-2-5-5-5-5-555-5-5-10-10-10-10-1010-10-10-7-7-7-7-777-7-7--|
C|-0-0-0-0-000-0-0-3-3-3-5-555-5-5-8--8--8--8--888--8--8--5-5-5-5-555-5-5--|
G|-0-0-0-0-000-0-0-3-3-3-5-555-5-5-8--8--8--8--888--8--8--5-5-5-5-555-5-5--|
C|-0-0-0-0-000-0-0-3-3-3-3-333-3-3-8--8--8--8--888--8--8--5-5-5-5-555-5-5--|
            
Submit corrections

comments powered by Disqus
↑ Back to top | Edgewater Tabs for Lifter. Lyrics for acoustic guitar and electric guitar. Tablatures and chords are parodies/interpretations of the original songs. You may use it for private study, scholarship, research or language learning purposes only