» » »

Edgewater, I Won't Back Down Tabs (ver.1)

Artists:  A B C D E F G H I J K L M N O P Q R S T U V W X Y Z # 

I Won't Back Down Tabs (ver.1)

Edgewater Tabs
 Rating:
4/5 (4 votes)
I Won't Back Down lessons Tabs too difficult? Try these video lessons and learn fast
                Edgewater - I won't back down
Intro - Verse (0:01 - 0:43)
E--------------------------------------------------------------------------|
B--------------------------------------------------------------------------|
G--------------------------------------------------------------------------|
D--------------------------------------------------------------------------|
A-11-11-11-11---9-9-9-9---2-2-2-2-2-2-2-2----------------------------------|
E-9--9--9--9----7-7-7-7---0-0-0-0-0-0-0-0----------------------------------|
P.M......................................

Chorus
E--------------------------------------------------------------------------|
B--------------------------------------------------------------------------|
G--------------------------------------------------------------------------|
D--------------------------------------------------------------------------|
A-11-11-11-11---9-9-9-9/11---7-7-7-7---6-6-6-6--11-11-11-11--9-9-9-9-11-11-|
E-9--9--9--9----7-7-7-7/9----5-5-5-5---4-4-4-4--9--9--9--9---7-7-7-7-9--9--|

E--------------------------------------------------------------------------|
B--------------------------------------------------------------------------|
G--------------------------------------------------------------------------|
D--------------------------------------------------------------------------|
A-9-9--7-7-7-7-11-11--9-9--7-7-7-7-----------------------------------------|
E-7-7--5-5-5-5--9--9--7-7--5-5-5-5-----------------------------------------|

Guitar solo
Lead guitar part
(1:45 - 2:03)
E-----------------------------------|--------------------------------------|
B-----------------------------------|--------------------------------------|
G-----------------------------------|--------------------------------------|
D------11r-11---11---11---11--------|------11---11--11--11-11--------------|
A-11h14------11---11---11---11-11-11|-11h14---11--11----11-11--------------|
E-----------------------------------|--------------------------------------|

E--------------------------------------------------------------------------|
B--------------------------------------------------------------------------|
G----------11-13-11--------------------------------------------------------|
D-----14--------------14r-------14-14-14-14-14-14-14----11-14---11-13-11---|
A-11----------------------11-11-12-12-12-12-12-12-12-11------11---------11-|
E--------------------------------------------------------------------------|

2 guitar

E--------------------------------------------------------------------------|
B--------------------------------------------------------------------------|
G--------------------------------------------------------------------------|
D--------------------------------------------------------------------------|
A-11-11-11-11---9-9-9-9---2-2-2-2-2-2-2-2----------------------------------|
E-9--9--9--9----7-7-7-7---0-0-0-0-0-0-0-0----------------------------------|
P.M......................................
            
Submit corrections

comments powered by Disqus
↑ Back to top | Edgewater Tabs for I Won't Back Down. Lyrics for acoustic guitar and electric guitar. Tablatures and chords are parodies/interpretations of the original songs. You may use it for private study, scholarship, research or language learning purposes only