>
 >
Eyes Wired Shut

Eyes Wired Shut Guitar Tabs

Edgewater - Eyes Wired Shut chords, tabs, tablatures, lyrics

Guitar lessons | Add/correct | Request | Top 50 tabs Artists:  A B C D E F G H I J K L M N O P Q R S T U V W X Y Z 0-9

Eyes Wired Shut Guitar Tabs – Edgewater

CD, Sheet music, Poster

Do you like Eyes Wired Shut? Share with your friends now
TabsTabs v2
I didn't tab this but i found it on another site and it isn't on here so here it is! 
Rocks!! and ppls gotta keep tabbin' their songs!
Tuning: Dropped D (DADGBe)


Intro:

It begins with the second guitar strumming this chord I don't know how many times...

E|----|
B|----|
G|-7--|
D|----|
A|-5--|
D|----|


Then the lead guitar enters..

Lead Guitar
E|-----------------------------------------|
B|-----------------------------------------|
G|-----------------------------------------|
D|-5-5-4-0-0-0......5..-9..-7-7--7-7--7-7--|
A|-5-5-4-0-0-0......5..-9..-7-7--7-7--7-7--|
D|-5-5-4-0-0-0......5..-9..-7-7--7-7--7-7--|
(The dots mean "keep doing that" :P cuz im not goin' 2 count how many times u have 2 do it...)

Guitar 2
E|--------------------------------------------------------------------|
B|--------------------------------------------------------------------|
G|-7-7-7--11-11--9--7-7-7--11-11-11/12--9--7-7-7--6-6--9-9--9-9--9-9--|
D|--------------------------------------------------------------------|
A|-5-5-5---9--9--7--5-5-5---9-9--9/10--7--5-5-5--4-4--7-7--7-7--7-7--|
D|--------------------------------------------------------------------|
You figure out how to play this

Verse:

Lead Guitar
E|-----------------------------------------------------------------------------|
B|-----------------------------------------------------------------------------|
G|-----------------------------------------------------------------------------|
D|-5-5-4-5~--------------------------------------------------------------------|
A|-5-5-4-5~-5-5-5-5-5-5-5-5-9-9-9-9-9-9-9-9-7-7-7-7-7-7-7-7-7-7-7-7-7-7-7---9--|
D|-5-5-4-5~-5-5-5-5-5-5-5-5-9-9-9-9-9-9-9-9-7-7-7-7-7-7-7-7-7-7-7-7-7-7-7-9----|
            P.M..........................................................

On the first verse the second guitar just strums this chord when the lead guitar 
its part...

Guitar 2
E|------|
B|------|
G|------|
D|-5~~--|
A|-5~~--|
D|-5~~--|

On the second verse it does something different...

Guitar 2
E|-9h10-------|-----14-10~~--|
B|------------|--------------|
G|------11~~--|--11----------|
D|------------|--------------|
A|------------|--------------|
D|------------|--------------|

It just repeats this two things...

Chorus:

Same as intro...

Bridge:

E|---------------------------|
B|---------------------------|
G|---------------------------|
D|---------------------------| x4
A|---4-5----4-5----7-5----9--|
D|-4------5------7------9----|

E|-------------------------|------------------------------------|
B|-------------------------|------------------------------------|
G|-------------------------|------------------------------------|
D|-4-4-4--5-5--7-7-7--9-9--|-4-4-4--5-5--7-7-7--4-4--5-5-7....--|
A|-4-4-4--5-5--7-7-7--9-9--|-4-4-4--5-5--7-7-7--4-4--5-5-7....--|
D|-4-4-4--5-5--7-7-7--9-9--|-4-4-4--5-5--7-7-7--4-4--5-5-7....--|
 |__________x3__________|


This is played without distortion...
E|-------5...--|
B|-------5...--|
G|-7...--7...--|
D|-7...--7...--|
A|-5...--5...--|
D|-------------|





Comments


Popular Edgewater tabs & chords
Apples And Oranges Tabs
Break Me Out Tabs
Caught In The Moment Tabs
Lifter Tabs
Lifter 1 Tabs
Ode To You Tabs
One Perfect Something Tabs
Qutter Tabs
Science Of It All Tabs
Sweet Suffocation Tabs


Song lyrics



↑ Back to top | Tablatures and chords are parodies/interpretations of the original songs. You may use it for private study, scholarship, research or language learning purposes only
© 2014 AZChords.com Contact us | Privacy policy | DMCA | Add/correct tabs | Request tabs | Top 50 tabs