>
 >
Engage

Engage Guitar Tabs

Edgewater - Engage chords, tabs, tablatures, lyrics

Guitar lessons | Add/correct | Request | Top 50 tabs Artists:  A B C D E F G H I J K L M N O P Q R S T U V W X Y Z 0-9

Engage Guitar Tabs – Edgewater

CD, Sheet music, Poster

Do you like Engage? Share with your friends now
Tabs
Band: Edgewater
--------------------------------------------------------------

Intro(x2)
1Gtr(Clean)
E|--------------------------------|--------------------------------------|
B|--------------------------------|--------------------------------------|
G|--------------------------------|--------------------------------------|
D|--------------------------------|--------------------------------------|
A|--8-5-0-8-5-0-8-5-0-8-5-0-8-5-0-|--10-7-0-10-7-0-10-7-0-10-7-0-10-7-0--|
D|--------------------------------|--------------------------------------|

2Gtr(Distorted)      
E|-----|-----|-----|---------------|
B|-----|-----|-----|---------------|
G|-----|-----|-----|---------------|
D|--3--|--5--|--3--|---5-----------|
A|-----|-----|-----|-------10/12---|
D|-----|-----|-----|---------------|

Verse
1Gtr(Clean)
E|--------------------------------|--------------------------------------|
B|--------------------------------|--------------------------------------|
G|--------------------------------|--------------------------------------|
D|--------------------------------|--------------------------------------|
A|--8-5-0-8-5-0-8-5-0-8-5-0-8-5-0-|--10-7-0-10-7-0-10-7-0-10-7-0-10-7-0--|
D|--------------------------------|--------------------------------------|
 
2Gtr(Distorted)
E|-----|-----|-----|-----|
B|-----|-----|-----|-----|
G|-----|-----|-----|-----|(x2)
D|-0-0-|-2-2-|-3-3-|-3-3-|
A|-0-0-|-2-2-|-3-3-|-3-3-|
D|-0-0-|-2-2-|-3-3-|-3-3-|


Pre-chorus(x8)
1Gtr(Distorted)
E|--------------------------------|--------------------------------------|
B|--------------------------------|--------------------------------------|
G|--------------------------------|--------------------------------------|
D|--------------------------------|--------------------------------------|
A|--8-5-0-8-5-0-8-5-0-8-5-0-8-5-0-|--10-7-0-10-7-0-10-7-0-10-7-0-10-12---|
D|--------------------------------|--------------------------------------|

Chorus chords(x2)
E|------------------|
B|------------------|
G|------------------|
D|--0---3---8---5---|
A|--0---3---8---5---|
D|--0---3---8---5---|

Second verce
1Gtr(Distorted)
E|--------------------------------|--------------------------------------|
B|--------------------------------|--------------------------------------|
G|--------------------------------|--------------------------------------|
D|--------------------------------|--------------------------------------|
A|--8-5-0-8-5-0-8-5-0-8-5-0-8-5-0-|--10-7-0-10-7-0-10-7-0-10-7-0-10-12---|
D|--------------------------------|--------------------------------------|

Second chorus chords(x3)
E|------------------|          |---------------------------|
B|------------------|          |---------------------------|
G|------------------|          |---------------------------|
D|--0---3---8---5---|(x3) then |---0---3---8---5--0-1--0-3-|
A|--0---3---8---5---|          |---0---3---8---5--0-1--0-3-|
D|--0---3---8---5---|          |---0---3---8---5--0-1--0-3-|

Post-Chorus
E|--------------------|-------------------------|
B|--------------------|-------------------------|
G|--------------------|-------------------------|
D|-0--0-1-0--0-1-0-0--|--0-0-0-0-0--0-0-0-1-1---|
A|-0--0-1-0--0-1-0-0--|--0-0-0-0-0--0-0-0-1-1---|
D|-0--0-1-0--0-1-0-0--|--0-0-0-0-0--0-0-0-1-1---|

Bridge
1Gtr
E|--------------------------------|------------------------------|
B|--------------------------------|------------------------------|
G|--------------------------------|------------------------------|
D|--------------------------------|------------------------------|
A|--------------------------8-7---|------------------------8-7---|
D|--0--0-3-5--0-3-5--0-3-5--8-7---|---0-3-5--0-3-5--0-3-5--8-7---|
    .  . . .  . . .  . . .            . . .  . . .  . . . 

E|--------------------------------------|-------------------------|
B|--------------------------------------|-------------------------|
G|--------------------------------------|-------------------------|
D|--------------------------------------|-------------------------|
A|--------------------------------8-7---|-------------------------|
D|---0-3-5--0-0-0-3-5--0-3-3-3-5--8-7---|---0-3-5--0-3-5--0-3-5---|
     . . .  . . . . .  . . . . .            . . .  . . .  . 

E|----------------------------------------|\
B|----------------------------------------| \
G|----------------------------------------|  |(x4)
D|----------------------------------------|  |
A|----------------------------(3)-(3p0)---| /
D|--0-1--0-1--0-1--0--3b5-(3)-(3)-(3-0)---|/
    . .  . .  . .  .   \    \   \     \    
                        \    \   \     \ 
                     1time 2time 3time  4time

Outro
2Gtr
E|-----------------------------|       E|-----------------------|
B|-----------------------------|(x3)   B|-----------------------|       
G|-----------------------------|       G|-----------------------|
D|-----------------------------| then  D|-----------------0-1---| 
A|-------------------(P.H.)----|       A|-----------------0-1---|
D|--0-1--0-1--0-1--0--3b-------|       D|--0-1--0-1--0-1--0-1---|
    . .  . .  . .  .                       . .  . .  





Comments


Popular Edgewater tabs & chords
Caught In The Moment Tabs
Circles Tabs
Eyes Wired Shut Tabs
Eyes Wired Shut 1 Tabs
Lifter Tabs
Lifter 1 Tabs
Lifter 3 Tabs
Qutter Tabs
Science Of It All Tabs
Tres Quatros Tabs


Song lyrics



↑ Back to top | Tablatures and chords are parodies/interpretations of the original songs. You may use it for private study, scholarship, research or language learning purposes only
© 2014 AZChords.com Contact us | Privacy policy | DMCA | Add/correct tabs | Request tabs | Top 50 tabs