>
 >
Circles

Circles Guitar Tabs

Edgewater - Circles chords, tabs, tablatures, lyrics

Guitar lessons | Add/correct | Request | Top 50 tabs Artists:  A B C D E F G H I J K L M N O P Q R S T U V W X Y Z 0-9

Circles Guitar Tabs – Edgewater

CD, Sheet music, Poster

Do you like Circles? Share with your friends now
Tabs
-------------------------------------------------------------------------------
                             Edgewater - Circles
-------------------------------------------------------------------------------

Tuning:Standard

Ok, i didn't tab out any rhythm or order but all the notes are there and it's 
easily deciphered if you just listen to the song.
  
  INTRO/VERSE 
e|---------------------------------------------------------------------------|
B|-------------------------------------------1-------------------------------|
G|----------0-------0-0-------------0----2-0---------------------------------|
D|---3----3-----3-3----------3----3------------------------------------------|
A|------1-----------------------1--------------------------------------------|
E|-0----------3------------0-----------3-------------------------------------|

e|---------------------------------------------------------------------------|
B|---------------------1-----------------------------------------------------|
G|----------0------------0---------------------------------------------------|
D|---3----3------3-3-2-------------------------------------------------------|
A|------1--------------------------------------------------------------------|
E|-0-----------3-------------------------------------------------------------|
  
   Chorus
e|---------------------------------------------------------------------------|
B|-----------------------------------------------------------------1h2p1-----|
G|-------3~----0h2p0---------------3-3-3---------------------3~---------2h3p2|
D|-0-0-0-3~-3~-------3h5p3p0-0-0-0-3-3-3-3-3-2-------------x-3~-3~-----------|
A|-0-0-0-1~-3~---------------0-0-0-1-1-1-3-3-2---3-3h5-5-5-x-1~-3~-----------|
E|-0-0-0----3~---------------0-0-0-------3-3-2-2-----------x----3~-----------|
   * * *                     * * *
   
   Outro/Second Verse (2 guitars)
  Guitar 1
e|---------------------------------------------------------------------------|
B|---------------------------------------------------------------------------|
G|-10-10---10-10--10-10--10-10-9-9--------------------------10-10---10-10----|
D|-10-10---10-10--10-10------------10-10h12----------10-10--10-10---10-10----|
A|------------------------------------------12-12-12-------------------------|
E|---------------------------------------------------------------------------|
   
  Guitar 2
e|---------------------------------------------------------------------------|
B|---------------------------------------------------------------------------|
G|-------3-3-3-3---------------------------3-3-3-3---------------------------|
D|-0-0-0-3-3-3-3-3-3-3-3-3-3-3-3-3-0-0-0-0-3-3-3-3-3-3-3-3-3-3-3-3-3---------|
A|-0-0-0-1-1-1-1-3-3-3-3-3-3-3-3-3-0-0-0-0-1-1-1-1-3-3-3-3-3-3-3-3-3---------|
E|-0-0-0---------3-3-3-3-3-3-3-3-3-0-0-0-0---------3-3-3-3-3-3-3-3-3---------|
   * * * * * * * * * * * * * * * * * * * * * * * * * * * * * * * * *

   Breakdown
  
  Guitar 1
e|---------------------------------------------------------------------------|
B|---------------------------------------------------------------------------|
G|---------------------------------------------------------------------------|
D|-10\-0--10\-0--10\-0--10\-0--12\-0--12\-0--12\-0--12\-0--------------------|
A|-10\-0--10\-0--10\-0--10\-0--12\-0--12\-0--12\-0--12\-0--------------------|
E|-10\-0--10\-0--10\-0--10\-0--12\-0--12\-0--12\-0--12\-0--------------------|
       *      *      *      *      *      *      *      *
  
  Guitar(check amount of strokes, i know its not right, im just lazy)
e|---------------------------------------------------------------------------|
B|-10-10-10-10-10-13-13-13-13---------------10-10-10-13-13-13----------------|
G|----------------------------9-9-9-9-------------------------9-9-9-7-9-10---|
D|---------------------------------------------------------------------------|
A|------------------------------------12-12----------------------------------|
E|---------------------------------------------------------------------------|


| /  slide up
| \  slide down
| h  hammer-on
| p  pull-off
| ~  vibrato
| +  harmonic
| *  Mute note
=========================================================================





Comments


Popular Edgewater tabs & chords
Eyes Wired Shut Tabs
I Won't Back Down Tabs
Inhale Tabs
Lifter Tabs
Lifter 1 Tabs
Lifter 3 Tabs
One Perfect Something Tabs
Science Of It All Tabs
Sweet Suffocation Tabs
Tres Quatros Tabs


Song lyrics



↑ Back to top | Tablatures and chords are parodies/interpretations of the original songs. You may use it for private study, scholarship, research or language learning purposes only
© 2014 AZChords.com Contact us | Privacy policy | DMCA | Add/correct tabs | Request tabs | Top 50 tabs