» » »

Edgewater, Break Me Out Tabs (ver.1)

Artists:  A B C D E F G H I J K L M N O P Q R S T U V W X Y Z # 

Break Me Out Tabs (ver.1)

Edgewater Tabs
 Rating:
4.3/5 (6 votes)
Break Me Out lessons Tabs too difficult? Try these video lessons and learn fast
1
                                        PLEASE RATE IT!!!

Edgewater – Break me out
Tuning – Drop C (DAFCGC)

Intro/verse(With Delay)

D-----------------------------------------|
A-----------------------------------------|
F--------------------------------6--------|
C---12---12p11/---4---12---12p11---4------|
G-----------------------------------------|
C-----------------------------------------|

D-----------------------------------------|
A-----------------------------------------|
F--------------------------------6-6------|
C---12---12p11/---4---12---12p11-----4----|
G-----------------------------------------|
C-----------------------------------------|

I'm not sure, but i think that second guitar in intro makes slide without pressing on the string
D--------------------------------------------------------------------------|
A--------------------------------------------------------------------------|
F--------------------------------------------------------------------------|
C--\----\----\-------------------------------------------------------------|
G--------------\----\----\-------------------------------------------------|
C--------------------------------------------------------------------------|

" Waste away in fear "
D----------------------|
A----------------------|
F---6-----9--9---11p9--|
C----------------------|
G----------------------|
C----------------------|

Will you wait?

D-------------------------------------------|
A-------------------------------------------|
F--11--11p9------------11--11p9--9p6h9-11---|
C------------12--12p11----------------------|
G-------------------------------------------|
C-------------------------------------------|

Do you still believe
(Play it so, don't read recomendation in comments!!!)
D------------------------------------------|
A-15---15p14------17---15--15p14------14---|
F-------------14-----------------14--------|
C------------------------------------------|
G------------------------------------------|
C------------------------------------------|

I'll free myself?

D-------------------------------------------|
A-------------------------------------------|
F-------------------------------------------|
C----0--0--0----------2-2-2-----------/12---|
G----0--0--0---(x4)---2-2-2--(x4)-----------|
C----0--0--0----------2-2-2-----------------|


Repeat intro

Then repeat this part
(Play it so, don't read recomendation in comments!!!)
D------------------------------------------|
A-15---15p14------17---15--15p14------14---|
F-------------14-----------------14--------|
C------------------------------------------|
G------------------------------------------|
C------------------------------------------|

I'll free myself?

D----------------------------------|
A----------------------------------|
F----------------------------------|
C----0--0--0------------2-2-2------|
G----0--0--0---(x4)-----2-2-2(x4)--|
C----0--0--0------------2-2-2------|

Did you wonder did you notice?

D-----------------|
A-----------------|
F-----------------|
C---2-2-2-2-------|
G---2-2-2-2--(X4)-|
C---2-2-2-2-------|

How I slept today

D----------------------|
A----------------------|
F----------------------|
C-----5-5-5-5----------|
G-----5-5-5-5----(X4)--|
C-----5-5-5-5----------|

Did you wonder?Won't you just

D-----------------|
A-----------------|
F-----------------|
C---2-2-2-2-------|
G---2-2-2-2--(X4)-|
C---2-2-2-2-------|

break me out?

D--------------------------------------------------|
A--------------------------------------------------|
F--------------------7h9----7h9----7p9-------(x3)--|
C------5--7--2-------------------------------------|
G------5--7--2---(x3)------------------------------|
C------5--7--2-------------------------------------|
(I think it's right)

Breakdown

Won't you won't you wait?
Won't you won't you wait?

          First time                              Second time
D------------------------------|----------------------------------------|
A------------------------------|----------------------------------------|
F---7-6---6--7-6---7h9-7p9-7p9-|-7-6---6-7-6---7h9-9-9-9-9--7h9-9-9-9-9-|
C-------4--------4-------------|-----4-------4--------------------------|
G------------------------------|----------------------------------------|
C------------------------------|----------------------------------------|

Why can't you won't I am you don't
Break me, save me, liar, I am
1 Guitar
D--------------------------------------------------------------|
A--------------------------------------------------------------|
F--------------------------------------------------------------|
C----2--2--2-----------4--4--4----------5-5-5-------7-7-7------|
G----2--2--2-(x2)------4--4--4-(x2)-----5-5-5-(x3)--7-7-7-(x1)-|
C----2--2--2-----------4--4--4----------5-5-5-------7-7-7------|

I think It's right
            
Submit corrections

comments powered by Disqus
↑ Back to top | Edgewater Tabs for Break Me Out. Lyrics for acoustic guitar and electric guitar. 1 Tablatures and chords are parodies/interpretations of the original songs. You may use it for private study, scholarship, research or language learning purposes only