>
 >
Apples And Oranges

Apples And Oranges Guitar Tabs

Edgewater - Apples And Oranges chords, tabs, tablatures, lyrics

Guitar lessons | Add/correct | Request | Top 50 tabs Artists:  A B C D E F G H I J K L M N O P Q R S T U V W X Y Z 0-9

Apples And Oranges Guitar Tabs – Edgewater

CD, Sheet music, Poster

Do you like Apples And Oranges? Share with your friends now
Tabs


---------------------------------------------------------------------------
                   |Apples & Oranges - Edgewater|
---------------------------------------------------------------------------
I didn't tab last chorus chords. Figure them out by yourself)

Tuning:
Intro Riff(x6)
D|--------------------------------------|
A|--------------------------------------|
F|--------------------------------------|
C|-----------------------------------2--|
G|--------------------------------------|
C|--2h0-2-2p0-2p0-2--2-0-2-2p0-2p0-2----|

Intro riff 2(x3)
D|-----------------------------------------------------|
A|-----------------------------------------------------|
F|-----------------------------------------------------|
C|-----------------------------------------------------|
G|-----------------------------------------------------|
C|--2-2h0-2p0-2p0-0-2p0-2p0--2-2h0-2p0-2p0-3-3p2-3p2---|


Verse Riff(x2)
1 Guitar
D|------------------------------------------|------------------------------|
A|------------------------------------------|------------------------------|
F|------------------------------------------|------------------------------|
C|------------------------------------------|------------------------------|
G|------------------------------------------|-3p2p0------------------------|
C|--2-0-2-0-2-0-0-0-0---2-0-2-0-0-0-3-0-2-0-|-3p2p0-2-0-0-0--2-0-0-2-0-3-3-|
    . . . . . . . . .   . . . . . . . . . .         . . . .  . . . . . . .
"You are buried in complications
Falling faster, falling deep
Drowning in their expectations
Take a step back and you'll see"

2 Guitar
D|-----------|
A|-----------|
F|-----------|
C|-9tp-------|
G|-----------|
C|-----------|
"Take a step back and you'll see"




                                              1:00
Chorus Riff(x2)                                  \
D|----------------------|-----------------------|------------|
A|----------------------|-----------------------|------------|
F|--------------------8-|-----------------------|------------|
C|---6--6-6-6-6-6-6-6---|-2-2-2-2--0h2-2-2--3-2-|----------0-|
G|---6--6-6-6-6-6-6-6---|-2-2-2-2--0h2-2-2--3-2-|-/11-10-8-0-|
C|---6--6-6-6-6-6-6-6---|-2-2-2-2--0h2-2-2--3-2-|-/11-10-8-0-|
"Step away, and separate"
                                           / /
                                         Second time don't play this chords


                                                 1:47
2 Chorus Riff(x2)                                  \
D|----------------------|-----------------------|--------|
A|----------------------|-----------------------|--------|
F|--------------------8-|-----------------------|--------|
C|---6--6-6-6-6-6-6-6---|-2-2-2-2--0h2-2-2--3-2-|--------|
G|---6--6-6-6-6-6-6-6---|-2-2-2-2--0h2-2-2--3-2-|-/6-6-8-|
C|---6--6-6-6-6-6-6-6---|-2-2-2-2--0h2-2-2--3-2-|-/6-6-8-|
                                            / /
                                         Second time don't play this chords

 Post-chorus Riff
D|----------------------|------------------|------------|
A|----------------------|------------------|------------|
F|--------------------8-|------------------|------------|
C|---6--6-6-6-6-6-6-6---|-2-2-2-2--0h2-2-2-|----------0-|
G|---6--6-6-6-6-6-6-6---|-2-2-2-2--0h2-2-2-|-/11-10-8-0-|
C|---6--6-6-6-6-6-6-6---|-2-2-2-2--0h2-2-2-|-/11-10-8-0-|
"Disconnect the wires that lead you
Open your eyes before your time flies away"




Acoustic Guitar
D|---------------------------------------|
A|---------------------------------------|
F|---7-7-7-7-7-7-7-7---------------------|
C|---7-7-7-7-7-7-7-7--8-8-8-8--6-6-6-6---|
G|---5-5-5-5-5-5-5-5--8-8-8-8--6-6-6-6---|
C|--------------------8-8-8-8--6-6-6-6---|

Bridge Rhythm Guitar Riff(x3)
D|---------------------------------------|
A|---------------------------------------|
F|---7-7-7-7-7-7-7-7---------------------|
C|---7-7-7-7-7-7-7-7--8-8-8-8--6-6-6-6---|
G|---5-5-5-5-5-5-5-5--8-8-8-8--6-6-6-6---|
C|--------------------8-8-8-8--6-6-6-6---|
"Please don't judge me, there's no reason
Don't misjudge yourself, there's no reason
Disconnect yourself   from the  reason"


Bridge Lead Guitar Riff(x3)
D|---------------------------------------------|
A|--7----------7----7--------------------------|
F|----7-9--7-9--7-9--9-7----------------4------|
C|------------------------9-7-9-7---7-5---7-5~-|
G|--------------------------------9------------|
C|---------------------------------------------|



2:46(With effect)
D|--------------|
A|--------------|
F|--9-11-12-14--|
C|--x-x--x--x---|
G|--7-9--10-12--|
C|--------------|


Outro Riff
D|-------------------------------------------------------------------------------------|
A|-------------------------------------------------------------------------------------|
F|-------------------------------------------------------------------------------------|
C|---------------------------------------------------------------------------3-2-0-2---|
G|---------------------------------------------------------------------------3-2-0-2---|
C|--3p2-2p0-2p0-0-0-2-2p0-2p0-2p0-0-0-2-2p0-2p0-2p0-0-0-2-2p0-2p0-2p0-0-0-2--3-2-0-2---|

************************************

| /   slide up
| \   slide down
| h   hammer-on
| p   pull-off
| ~   vibrato
| tp  tremolo picking
************************************





Comments


Popular Edgewater tabs & chords
Break Me Out Tabs
Caught In The Moment Tabs
Eyes Wired Shut Tabs
Lifter 1 Tabs
Lifter 3 Tabs
Ode To You Tabs
One Perfect Something Tabs
Science Of It All Tabs
Story Of.. Tabs
Tres Quatros Tabs


Song lyrics



↑ Back to top | Tablatures and chords are parodies/interpretations of the original songs. You may use it for private study, scholarship, research or language learning purposes only
© 2014 AZChords.com Contact us | Privacy policy | DMCA | Add/correct tabs | Request tabs | Top 50 tabs