» » »

Edge Of Sanity, Uncontroll Me Bass tabs (ver.1)

Artists:  A B C D E F G H I J K L M N O P Q R S T U V W X Y Z # 

Uncontroll Me Bass tabs (ver.1)

Edge Of Sanity Tabs
Rating:
0/5 (0 votes)
Uncontroll Me lessons Tabs too difficult? Try these video lessons and learn fast
                x8       
|------------------------|-------|----------------|------------------|
|------------------------|-------|----------------|------------------|
|------------------------|-------|----------------|------------------|
|------000---------------|-------|------000-------|----------------1-|
|222333---33322332222~---|-22--33|222333---3332233|0000---00---003--3|



|------------------|--------------------------|
|------------------|--------------------------|
|------------------|--------------------------|
|------------------|---------1/2-5-2----------|
|----7\---6\-----1-|----7\-----------0---1-0--|
|0000---00---003--3|0000---00----------------3|


x8
|-------------------------------|----------------|
|-------------------------------|----------------|
|-------------------------------|----------------|
|-------------------------------|----------------|
|3-0-7-6~--0-1-3~------3~------5|------000-------|
|------------------0-3-----0-3--|222333---3332233|



             x4                           x4
|--------------------------|------------------------------|
|--------------------------|------------------------------|
|--------------------------|0h222-22-0h222-22-------------|
|-------------------0-1-0--|------------------0-1------0-1|
|0--3~--5~--5h6p5\3-------3|----------------------3~-3----|


               x2                             x4
|------------------------------|------------------------------|
|------------------------------|------------------------------|
|------------------------------|0h222-22-0h222-22-------------|
|3-0h3-3-3-0--3----------------|------------------0-1------0-1|
|---------------3-0h3-3-3-0--3-|----------------------3~-3----|


              x3                          x1
|------------------------------|-----------------------|
|------------------------------|-----------------------|
|------------------------------|-----------------------|
|3-0h3-3-3-0--3----------------|3--3--3~---------------|
|---------------3-0h3-3-3-0--3-|-----------3--3--3~---3|


  
|----------------|-|----------------|-------------------------------|
|----------------|-|----------------|-------------------------------|
|----------------|-|----------------|-------------------------------|
|------000-------|3|3--3--3------5--|3-0-7-6~--0-1-3~------3~------5|
|222333---3332233|-|---------0-3----|------------------0-3-----0-3--|



|-------------------------------|------------------------------|
|-------------------------------|------------------------------|
|-------------------------------|------------------------------|
|3-0-7-6~--0-1-3~------3~------5|3-0-7-6~--0-1-3~------3~------|
|------------------0-3-----0-3--|------------------0-3---------|
            
Submit corrections

comments powered by Disqus
↑ Back to top | Edge Of Sanity Bass for Uncontroll Me. Lyrics for acoustic guitar and electric guitar. Tablatures and chords are parodies/interpretations of the original songs. You may use it for private study, scholarship, research or language learning purposes only