» » »

Edge Of Sanity, Twilight Tabs (ver.1)

Artists:  A B C D E F G H I J K L M N O P Q R S T U V W X Y Z # 

Twilight Tabs (ver.1)

Edge Of Sanity Tabs
 Rating:
4/5 (4 votes)
Twilight lessons Tabs too difficult? Try these video lessons and learn fast
                join the death/black tab emailing list my emailing 


----------------------------------------------
Band: Edge of Sanity
----------------------------------------------

========================================================================
NOTE: 
This song isn't tabbed in the real tuning, but I think nobody would tune
his 2.5 steps down just to play an EOS-Song, so I tabbed it, that you
can play it in normal tuning along the record.
========================================================================


Intro (4x)
==========

 |Lead-Guitar       h  p    h  p  |1.     |2.
e|--------------------------------|-------|-------------------------------
B|--------------------------------|-------|-------------------------------
G|--------------------------------|-------|-------------------------------
D|------9-7-----------------------|-------|--9----------------------------
A|-----------10-9--9-10-9--9-10-9-|6-6-6--|6------------------------------
E|-0-0----------------------------|-------|-------------------------------
 |Rhytm-Guitar
e|--------------------------------|-------|--------------------------------
B|--------------------------------|-------|--------------------------------
G|--------------------------------|8-8-8--|--------------------------------
D|-2---------5--4-----------------|8-8-8--|4-------------------------------
A|-2---------5--4-----------------|6-6-6--|2-------------------------------
E|-0---------3--2-----------------|-------|2-------------------------------


Verse 1 (4x)
============
e|-----------------------------------------------------------------------
B|-----------------------------------------------------------------------
G|-----------------------------------------------------------------------
D|-----4-----4---------5-8-----8--8------4-----4---------5-8-8-7-5-4-----
A|-22222-22222-222233333-6-66666-10--22222-22222-222233333-6-6-5-3-2-----
E|-----------------------------------------------------------------------
   ....  ....  ........    ....      ....  ....  ........



Pre-Chorus (2x)
==============
                              |1.     |2.
e|----------------------------|-------|------------------------------------
B|----------------------------|-------|------------------------------------
G|----------------------------|-------|------------------------------------
D|------4-2-------------------|-------|--4---------------------------------
A|-2-2------5-4--4-5-4--4-5-4-|1-1-1--|1----------------------------------
E|----------------------------|-------|------------------------------------
 |                            |
e|----------------------------|-------|------------------------------------
B|----------------------------|-------|------------------------------------
G|----------------------------|-------|6-----------------------------------
D|-4--------7-6---------------|-------|4-----------------------------------
A|-2--------5-4---------------|8-8-8--|4-----------------------------------
E|-2--------5-4---------------|6-6-6--|------------------------------------


--Verse 1 (2x)--

Chorus (5x)
===========
e|-----------------------------------------------------------------------
B|-----------------------------------------------------------------------
G|-----------------------------------------------------------------------
D|------------6---------------------------------------------------------
A|-----6-4--4---2--1-2-4-2--1--------------------------------------------
E|-4-4-------------------------------------------------------------------
 |
e|-----------------------------------------------------------------------
B|-----------------------------------------------------------------------
G|-----------------------------------------------------------------------
D|-------6--6-6-4--3-4-6-4--3--------------------------------------------
A|-6-6-6-4--4-4-2--1-2-4-2--1--------------------------------------------
E|-4-4-4-----------------------------------------------------------------
   . . .    . .

Verse 2 (just one guitar, 1x)
=============================
e|-----------------------------------------------------------------------
B|-----------------------------------------------------------------------
G|-----------------------------------------------------------------------
D|------------------------5-8------------------------8-11----------------
A|-0-0-3-3-2--0-0-3-3-2---3-6--0-0-3-3-2--0-0-3-3-2--6-9-----------------
E|-----------------------------------------------------------------------
                          . .                        . .

Verse 2 (full power, 2x)
========================
e|-----------------------------------------------------------------------
B|-----------------------------------------------------------------------
G|-----------------------------------------------------------------------
D|------------------------5-8------------------------8-11----------------
A|-0-0-3-3-2--0-0-3-3-2---3-6--0-0-3-3-2--0-0-3-3-2--6-9-----------------
E|-----------------------------------------------------------------------
 | . . . . .  . . . . .   . .  . . . . .  . . . . .  . .
 |
e|-----------------------------------------------------------------------
B|-----------------------------------------------------------------------
G|-----------------------------------------------------------------------
D|-2-2--------2-2---------5-8--2-2--------2-2--------8-11----------------
A|-----3-3-2------3-3-2---3-6------3-3-2------3-3-2--6-9-----------------
E|-----------------------------------------------------------------------
   . . . . .  . . . . .   . .  . . . . .  . . . . .  . .


Verse 3 (2x)
===========
 |                                 |after 3rd time
e|---------------------------------|-------------------------------------
B|---------------------------------|-------------------------------------
G|-------------------2-------------|-------------------------------------
D|-4-------------4-5---5---4---2---|-0-2--2-4--5-4-----------------------
A|---2-2-----2-5-------------------|-------------------------------------
E|---------------------------------|-------------------------------------
 |
e|---------------------------------|-------------------------------------
B|---------------------------------|-------------------------------------
G|---------------------------------|-------------------------------------
D|-4-4-4-4-4-4-4-4-----------------|---2--2-4--5-4-----------------------
A|-2-2-2-2-2-2-2-2-5-5-5-5-2-2-2-2-|---2--2-4--5-4-----------------------
E|-----------------3-3-3-3-2-2-2-2-|---0--0-2--3-2-----------------------
   . . . . . . . . . . . . . . . .

--Verse 1 (2x)--
--Pre-Chorus (2x)--
--Verse 1 (2x)--
--Chorus (5x)--

I can't listen out the part before the 2nd keyboard section correctly,
just the end of it:

e|-----------------------------------------------------------------------
B|-----------------------------------------------------------------------
G|-----------------------------------------------------------------------
D|--9--7--5--8--7--5--4--------------------------------------------------
A|--7--5--3--6--5--3--2--------------------------------------------------
E|--7--5--3--6--5--3--2--------------------------------------------------

--keyboard section-- 
//I first have to ask my keyboard-player in the band,
//but that's work ;-)

--Chorus (5x)--

--Verse 2 (just one guitar, 1x)--
--Verse 2 (full power, 2x)--
--Verse 1 (2x)--
--Pre-Chorus (2x)--
--Verse 1 (2x)--
--Chorus (5x)--
--Verse 3 (2x)

Verse 4 (3x)
============
                                      |after 3rd time
e|------------------------------------|-----------------------------------
B|------------------------------------|-----------------------------------
G|-11-----11-9-11-12--11-12-14--11-12-|-11------12------------------------
D|----9-9-----------------------------|----9-9-----12-12------------------
A|------------------------------------|-----------------------------------
E|------------------------------------|-----------------------------------
 |                                    |
e|------------------------------------|-----------------------------------
B|------------------------------------|-----------------------------------
G|------------------------------------|---------7-------------------------
D|-4-4-4-4-4-4-4-4--------------------|-4-------5-------------------------
A|-2-2-2-2-2-2-2-2-5-5-5-5-7-7-7-7----|-2-------5-------------------------
E|-----------------3-3-3-3-5-5-5-5----|-----------------------------------

   . . . . . . . . . . . . . . . .
            
Submit corrections

comments powered by Disqus
↑ Back to top | Edge Of Sanity Tabs for Twilight. Lyrics for acoustic guitar and electric guitar. Tablatures and chords are parodies/interpretations of the original songs. You may use it for private study, scholarship, research or language learning purposes only