» » »

Edge Of Sanity, No Destiny Bass tabs (ver.1)

Artists:  A B C D E F G H I J K L M N O P Q R S T U V W X Y Z # 

No Destiny Bass tabs (ver.1)

Edge Of Sanity Tabs
Rating:
0/5 (0 votes)
No Destiny lessons Tabs too difficult? Try these video lessons and learn fast
                standard tuning 

         x4                                          x4
|---------------------|-|-------------------|--------------------|
|---------------------|-|-------------------|--------------------|
|----------2-0-0------|-|-------------------|--------------------|
|----------------1-0-0|-|-------------------|--------------------|
|3-0-1-3-0------------|0|1-3-1-3-1-3-1-0----|1-3-1-3-1-3-1-0---0-|


           x4                                    x4
|------------------------|-------------|-------------------|
|------------------------|-------------|-------------------|
|------------------------|-------------|-------------------|
|------------------------|-------------|0--0033------------|
|1-3-1-3-1-3-1-0--0000--0|1-3-1-3-1-3-1|--------333~-335-0-|


            x4                      x4
|------------------------|---------------------|-|-------------|
|------------------------|---------------------|-|-------------|
|------------------------|----------2-0-0------|-|-------------|
|------------------------|----------------1-0-0|-|-------------|
|0--0000--0-1-3-1-3-1-3-1|3-0-1-3-0------------|0|1-3-1-3-1-3-1|



                                 x4                    x4
|----|---------------|------------------------|-------------------|
|----|---------------|------------------------|-------------------|
|----|---------------|------------------------|-------------------|
|----|---------------|------------------------|0--0033------------|
|--0-|1-3-1-3-1-3-1-3|0--0000--0-1-3-1-3-1-3-1|--------333~-335-0-|


           x4                      x4             x2          x2
|---------------------|--------------------------|--|--------------------|
|---------------------|--------------------------|--|--------------------|
|----------2-0-0------|---------2----------------|--|----2-3-------2-3---|
|----------------1-0-0|----2~-----0--2------3~---|--|--------1-2-3-----1-|
|3-0-1-3-0------------|0----------------0--------|00|00------------------|



                                      x4
|-|----------------|---|-------------------------------|
|-|----------------|---|-------------------------------|
|-|----------------|---|-------------------------------|
|-|----------------|---|-------------------------------|
|0|1-3-1-3-1-3-1-0-|13\|1-3-1-3-1-3-1-0-000-000-000-000|



                            x 2
|----------------------------|-------------------------------|
|----------------------------|-------------------------------|
|----------------------------|-------------------------------|
|----------------------------|-------------------------------|
|1-3-1-3-1--0-000-000-000-000|1-3-1-3-1-3-1-0-000-000-000-000|



                          x8
|--------------|---------------------|-----------|
|--------------|---------------------|-----------|
|--------------|----------2-0-0------|-----------|
|--------------|----------------1-0-0|-----------|
|1-3-1-3-1-3-1-|3-0-1-3-0------------|0---0-0-0-1|
            

comments powered by Disqus
↑ Back to top | Edge Of Sanity Bass for No Destiny. Lyrics for acoustic guitar and electric guitar. Tablatures and chords are parodies/interpretations of the original songs. You may use it for private study, scholarship, research or language learning purposes only