» » »

Edge Of Sanity, Losing Myself Tabs (ver.1)

Artists:  A B C D E F G H I J K L M N O P Q R S T U V W X Y Z # 

Losing Myself Tabs (ver.1)

Edge Of Sanity Tabs
4/5 (4 votes)
Losing Myself lessons Tabs too difficult? Try these video lessons and learn fast
                 ~Edge of Sanity~
~Losing Myself~

Tuning: Normal - EADGBe

e |------------------------------------------------------|
B |------------------------------------------------------|
G |----------------------------------------5-7-8-7-5h7---|
D |-5-5-7-8--7-5-3-5-7-5-3h5---5-5-7-8-7-8---------------|
A |------------------------------------------------------|
E |------------------------------------------------------|

e |----------------|
B |----------------|
G |-----7-7----7---|
D |--7--7-7--x-7---|
A |--5--5-5--x-5---|
E |----------------|

  Small break/Bridge:

e |------------|
B |------------|
G |------------|
D |--3--6--8---|
A |--1--4--6---|
E |------------|

  After Bridge second guitar joins the verse with this:

e |----------------|
B |----------------|
G |-----6-6----6---|
D |-----6-6--6-6---|
A |--4--4-4--4-----|
E |----------------|

	      (...I am lost I feel I'm...)
e |-----------|--5--5-5--5-5---|--3--3-3--3-3---|
A |-----------|--7--7-7--7-7---|--5--5-5--5-5---|
D |--7--5-----|--7--7-7--7-7---|--5--5-5--5-5---|
G |--7--5--5--|--7--7-7--7-7---|--5--5-5--5-5---|
B |--5--3--5--|--5--5-5--5-5---|--3--3-3--3-3---|
E |--------3--|--5--5-5--5-5---|--3--3-3--3-3---|

   (...Like I was made of rain...)
e |--5--5-5--5-5--|--3--3-3--3-3---|
B |--5--5-5--5-5--|--3--3-3--3-3---|
G |--6--6-6--6-6--|--4--4-4--4-4---|
D |--7--7-7--7-7--|--5--5-5--5-5---|
A |--7--7-7--7-7--|--5--5-5--5-5---|
E |--5--5-5--5-5--|--3--3-3--3-3---|


e |-----------|--------------|
B |-----------|--------------|
G |-----------|--------------|
D |--3--6--8--|------6-------|  Just Play around with the second
A |--1--4--6--|--7-9---9-7---|  part of that...
E |-----------|--------------|


e |----------------------------------------------------------------|
B |--7-8-7-5--8-7h8-7-5-7v-----8-7-5----5-7-8--7-5----5-7-5-7-5b---|
G |----------------------------------7-------------7---------------|
D |----------------------------------------------------------------|
A |----------------------------------------------------------------|
E |----------------------------------------------------------------|

  Solo Con.:
e |-------------------------------------------7-9-10-9-7h9---|
B |-7-7-9-10--9-7-5-7-9-7-5h7---5-5-9-10-9-10----------------|
G |----------------------------------------------------------|
D |----------------------------------------------------------|
A |----------------------------------------------------------|
E |----------------------------------------------------------|

e |-10-9-7-----------|
B |--------10-9-10---|
G |------------------|
D |------------------|
A |------------------|
E |------------------|

This is what I could do at tabbing this song, I won't pretend it's right, but it's still
the best I could do.  I didn't bother with the timing, so just listen to the song for accurate timing.
If you have any questions, comments or corrections e-mail me.
Submit corrections

comments powered by Disqus
↑ Back to top | Edge Of Sanity Tabs for Losing Myself. Lyrics for acoustic guitar and electric guitar. Tablatures and chords are parodies/interpretations of the original songs. You may use it for private study, scholarship, research or language learning purposes only