» » »

Forgive And Forget Tabs (ver.1)

Artists:  A B C D E F G H I J K L M N O P Q R S T U V W X Y Z # 

Forgive And Forget Tabs (ver.1)

Edge
Rating:
0/5 (0 votes)

Tabs too difficult? Try these video lessons and learn fast.
                Band;Edge
Title;Forgive And Forget
Album;

this is on of Edge`s sad song but still rad.

INTRO;

e---------------------------------
B---9-------9-------9-------9-----
G-9---9-9-9---9-9-9---9-9-9---9-9-
D7-7-7-7-8-8-8-8---------0-0-0-0--
A----------------7-7-7-7----------
E---------------------------------

VERSE;

e------------------------
B--9--9--9--9--9--9--9--9
G-9--9--9--9--9--9--9--9-
D7--7--8--8--------0--0--
A------------7--7--------
E------------------------

CHORUS;

e-----------------------------------
B-----------------------------------
G------------------77777777-99999999
D77777777-77777777-77777777-99999999
A77777777-77777777-55555555-77777777
E55555555-44444444------------------


AFTER BASS PLAYS TWICE
BRIDGE

e------------
B--9--9--9--9
G99-99-77-77-
D------------
A------------
E------------

ORDER.
INTRO x2
VERSE x4
CHORUS x2
INTRO x2
VERSE x4
CHORUS x4
BRIDGE x8
CHORUS x4
            
Tabs too difficult? Try these video lessons and learn fast.


comments powered by Disqus
↑ Back to top | Tablatures and chords are parodies/interpretations of the original songs. You may use it for private study, scholarship, research or language learning purposes only