>
 >
Frankenstein 2

Frankenstein 2 Guitar Tabs

Edgar Winter Group - Frankenstein 2 chords, tabs, tablatures, lyrics

Guitar lessons | Add/correct | Request | Top 50 tabs Artists:  A B C D E F G H I J K L M N O P Q R S T U V W X Y Z 0-9

Frankenstein 2 Guitar Tabs – Edgar Winter Group

CD, Sheet music, Poster

Do you like Frankenstein 2? Share with your friends now
Bass TabsBass Tabs v2TabsTabs v2Tabs v3
Song--------Frankenstein
Artist------Edgar Winter Groupe
Album-------They Only Come Out At Night

Riff 1

-----------------------
-----------------------
----------3------------
5555-3-55-3--555-3-5---
5555-3-55-1--555-3-5---
3333-1-33----333-3-5---

Riff 2

-----------------------------------
-------------------------3---------
--------3---5-3---3--5-3--5-3------
----3-5---5-----5-------------5-3-5
3-5--------------------------------
-----------------------------------

Riff 3

--------------------
---------3h45595----
---3h455-3h45585----
55-3h455-1h23363----
55-1h233------------
33------------------

Riff 4

---------------------------3-----------
---------4---6-4----4-6-4----6-4-------
----3-5----5-----5---------------5-3-5-
3-5------------------------------------
---------------------------------------
---------------------------------------

Riff 5

---------------------
---------------------
3333-2320---2222-212-
--------------------4
---------------------
---------------------

Riff 6
Part 1 x1          Part 2 x2
---------------\----------------
---------------\----------------
3-3-33-3-33-3--\5-5-55-5-55-5---
3-3-33-3-33-3--\5-5-55-5-55-5---
1-1-11-1-11-1--\3-3-33-3-33-3---
---------------\----------------

Riff 7

------------
------------
---55-77-5-7
77-55-77-5-7
77-33-55-3-5
55----------

Riff 8

---------
---------
99-7-9-9-
99-7-9-7-
77-5-7-5-
---------

Riff 9

--------------------------
--------------------------
--------------------------
--------------------2345--
----1233--------1233----5-
3-33-----012-333---------3

These next two riffs are played by the bass, but you can play them with a guitar also.

Bass riff 1

-----------------------------------------
-----------------------------------------
------------------------- 3---5----------
---------------------3-53---5---8-7-10-12
----------1---3-1-53---------------------
1-333-1-3---3----------------------------

Bass riff 2

--------------------------------
--------------------------------
----------------------3---------
5-3-5---*drums*-5-3-5----*drums*
--------------------------------
------3-------------------------


Riff 10


It doesent really matter if you get the right noter here.  Just play it fast.

12h11h10h9h8h7h6h5h4h3h2h-------------------------
-------------------------12h11h10h9h8h7h6h5h4h3h2h
--------------------------------------------------
--------------------------------------------------
--------------------------------------------------
--------------------------------------------------
Just mess around with stuff like that and it sounds right.

Riff 11

I dont think this is played by a guitar, but this sounds ok.

(palm muted)

---------------------------------------------------
---------------------------------------------------
-12-12-11-11-10-10-9-9-8-8-7-7-6-6-5-5-4-4-3-3-2-2-
-12-12-11-11-10-10-9-9-8-8-7-7-6-6-5-5-4-4-3-3-2-2-
-10-10-9--9--8--8--7-7-6-6-5-5-4-4-3-3-2-2-1-1-0-0-
---------------------------------------------------


Riff 12

----------------
----------------
3333-5555-7777--
3333-5555-7777--
1111-3333-5555--
----------------

Order:
Riff 1 x2
Riff 2 x1
Riff 3 x1
Riff 2 x1 AND Riff 6 x1
Riff 4 x1 AND Riff 6 x1
Riff 5 x1
Riff 1 x2
Riff 7 x8
Riff 8 x4
Riff 9 x6
Bass riff 1 x2
Bass riff 2 x2
Drum Solo
Riff 10 x as many times needed
Riff 11 x1
Riff 1 x2
Riff 2 x2
Riff 12 x2





Comments


Popular Edgar Winter Group tabs & chords
Frankenstein Bass Tabs
Frankenstein 1 Bass Tabs
Free Ride Bass Tabs
Free Ride 1 Bass Tabs
Autumn Chords
Frankenstein (Intro) Tabs
Frankenstein 1 Tabs
Free Ride Tabs
Free Ride 1 Tabs
The Power Of Positive Drinkin Intro Tabs


Song lyrics



↑ Back to top | Tablatures and chords are parodies/interpretations of the original songs. You may use it for private study, scholarship, research or language learning purposes only
© 2014 AZChords.com Contact us | Privacy policy | DMCA | Add/correct tabs | Request tabs | Top 50 tabs