>
 >
Sail On

Sail On Guitar Tabs

Edens Curse - Sail On chords, tabs, tablatures, lyrics

Guitar lessons | Add/correct | Request | Top 50 tabs Artists:  A B C D E F G H I J K L M N O P Q R S T U V W X Y Z 0-9

Sail On Guitar Tabs – Edens Curse

CD, Sheet music, Poster

Do you like Sail On? Share with your friends now
Tabs
#------------------------------------------------------------------------------##

                                     SAIL ON
                           As recorded by Eden's Curse
                     (From the 2008 Album THE SECOND COMING)

Music by Eden's Curse

Gtr I (D# G# C# F# A# D#) - 'Clean'
Gtr II (D# G# C# F# A# D#) - 'Distortion 1'
Gtr III (D# G# C# F# A# D#) - 'Lead 1'
Gtr IV (D# G# C# F# A# D#) - 'Lead 2'

 4/4
  Gtr I
  E E E E +H       E E E E +H       E E E E +H       E E E E +H
|-------3-(3)----|-------3-(3)----|-------3-(3)----|-------3-(3)----|
|---0-1----------|---0-1----------|---0-1----------|---0-1----------|
|----------------|----------------|----------------|----------------|
|----------------|----------------|----------------|-0--------------|
|-0--------------|-2--------------|-3--------------|----------------|
|----------------|----------------|----------------|----------------|


 4/4
  Gtr I
  E E E E +H              E  E E E +H
|-------3-(3)---------|----------3-(3)---------|
|---0-1---------------|------0-1---------------|
|---------------------|------------------------|
|---------------------|------------------------|
|-0-------------------|---2--------------------|
|---------------------|------------------------|
|
| Gtr III
|                         ~~~~
| H        E   E E  E    +H         E  e  e  E
|----------------8-10-|-(10)-----------8-10-12-|
|-------------/8------|------------------------|
|---------------------|------------------------|
|---------------------|------------------------|
|---------------------|------------------------|
|---------------------|------------------------|


    E  E   E   E    +H          E E E E  +H
|--------------3----(3)-----|---------3--(3)-----------|
|------0---1----------------|-----0-1------------------|
|---------------------------|--------------------------|
|---------------------------|---0----------------------|
|---3-----------------------|--------------------------|
|---------------------------|--------------------------|
|
|   ~~~~
|  +Q     +E   S  S  Q   q      H        +E   +E  E  E
|-(12)---(12)-13-12-10---8--|--------------------------|
|---------------------------|-/12-------(12)-(12)S8S10-|
|---------------------------|--------------------------|
|---------------------------|--------------------------|
|---------------------------|--------------------------|
|---------------------------|--------------------------|


   Verse 1
   4/4
      E  E E E +H       E E E E +H       E E E E +H       E E E E +H      3x
||-----------3-(3)----|-------3-(3)----|-------3-(3)----|-------3-(3)-----||
||o------0-1----------|---0-1----------|---0-1----------|---0-1----------o||
||--------------------|----------------|----------------|-----------------||
||--------------------|----------------|----------------|-0---------------||
||o---0---------------|-2--------------|-3--------------|----------------o||
||--------------------|----------------|----------------|-----------------||
|
|    +W                 W                W                W               3x
||--------------------|----------------|----------------|-----------------||
||o-(10)--------------|----------------|----------------|----------------o||
||--------------------|----------------|----------------|-----------------||
||--------------------|----------------|----------------|-----------------||
||o-------------------|----------------|----------------|----------------o||
||--------------------|----------------|----------------|-----------------||


  Gtr I
  E  E Q  H         E  E Q   H          E  E Q  H         E  E Q   H
|------3--5------|-------3---5--------|------3--5------|-------3---5--------|
|----------------|--------------------|----------------|--------------------|
|----2-----------|-----2--------------|----2-----------|-----2--------------|
|-3--------------|--3-----------------|-2--------------|--2-----------------|
|----------------|--------------------|----------------|--------------------|
|----------------|--------------------|----------------|--------------------|
|
| Gtr II
|            PM        PM  PM                      PM        PM  PM
| H.         E E   +E  E E E E E +Q     H.         E E   +E  E E E E E +Q
|----------------|--------------------|----------------|--------------------|
|----------------|--------------------|----------------|--------------------|
|--------------5-|-(5)---4---4-5-(5)--|-2------------5-|-(5)---4---4-5-(5)--|
|-3------------3-|-(3)---3---3-3-(3)--|-2------------2-|-(2)---2---2-2-(2)--|
|-3--------------|--------------------|-0----------0---|-----0---0----------|
|-1----------1---|-----1---1----------|----------------|--------------------|


  E  E Q  H         E  E Q   H          E E Q  H      W
|------3--5------|-------3---5--------|-----3--5----|-----------------|
|----------------|--------------------|-------------|-----------------|
|----2-----------|-----2--------------|---2---------|-----------------|
|-3--------------|--3-----------------|-2-----------|-----------------|
|----------------|--------------------|-------------|-----------------|
|----------------|--------------------|-------------|-----------------|
|
|            PM        PM  PM                         PM----|
| H.         E E   +E  E E E E E +Q     W             E E E E E E E E
|----------------|--------------------|-------------|-----------------|
|----------------|--------------------|-------------|-----------------|
|--------------5-|-(5)---4---4-5-(5)--|-------------|-----------------|
|-3------------3-|-(3)---3---3-3-(3)--|-5-----------|-----------------|
|-3--------------|--------------------|-5-----------|-0-0-0-0-3-2-0---|
|-1----------1---|-----1---1----------|-3-----------|---------------3-|


   Chorus 1
    Gtr II
    H.      +E  E   +Q.   E +H       H.      +E  E   +Q.   Q.   Q
||----------------|----------------|---------------|----------------|
||o---------------|----------------|---------------|----------------|
||--2-------(2)---|----------------|-2-------(2)---|----------------|
||--2-------(2)-3-|-(3)---5-(5)----|-2-------(2)-3-|-(3)---5--------|
||o-0-------(0)-3-|-(3)---5-(5)----|-0-------(0)-3-|-(3)---5--------|
||--------------1-|-(1)---3-(3)----|-------------1-|-(1)---3----0---|
|
|      Gtrs III, IV
|   W                W               W                W
||----------------|----------------|---------------|----------------|
||o---------------|----------------|---------------|----------------|
||----------------|----------------|---------------|----------------|
||----------------|----------------|---------------|----------------|
||o---------------|----------------|---------------|----------------|
||----------------|----------------|---------------|----------------|


  H.      +E  E   +Q.   E +H
|---------------|----------------|
|---------------|----------------|
|-2-------(2)---|----------------|
|-2-------(2)-3-|-(3)---5-(5)----|
|-0-------(0)-3-|-(3)---5-(5)----|
|-------------1-|-(1)---3-(3)----|
|
| W                W
|---------------|----------------|
|---------------|----------------|
|---------------|----------------|
|---------------|----------------|
|---------------|----------------|
|---------------|----------------|


  H.      +E  E       +W
|-------------------|--------------------------||
|-------------------|-------------------------o||
|-------------------|--------------------------||
|-3-------(3)-5-----|-(5)----------------------||
|-3-------(3)-5-----|-(5)---------------------o||
|-1-------(1)-3-----|-(3)----------------------||
|
| H.       E  E       +Q.    E E S    +S  Q
|---------/5--------|--------8-----------------||
|---------/3--8b10==|=(8)r---6-8-8b10r(8)-5---o||
|-------------5b7===|=(5)r-----5-5b7r==5--2----||
|-------------------|--------------------------||
|-------------------|-------------------------o||
|-------------------|--------------------------||
  H.       E  E       +Q.    E E S     S  Q


  Gtr II
  PM----|   PM|     PM|     PM----|   PM|     PM|
  S S S S E S S E E S S E   S S S S E S S E E S S E
|-------------------------|-------------------------|
|-------------------------|-------------------------|
|---------4-----4-2-----2-|---------5-----5-4-----5-|
|---------2-----2-2-----2-|---------5-----5-5-----5-|
|-0-0-0-0---0-0-----0-0---|-0-0-0-0---0-0-----0-0---|
|-------------------------|-------------------------|


  PM----|   PM|     PM|     PM----|   PM|     PM|
  S S S S E S S E E S S E   S S S S E S S E E S S E
|-------------------------|----------------------------|
|-------------------------|----------------------------|
|---------4-----4-2-----2-|---------5-----5-4-----5----|
|---------2-----2-2-----2-|---------5-----5-5-----5----|
|-0-0-0-0---0-0-----0-0---|-0-0-0-0---0-0-----0-0------|
|-------------------------|----------------------------|


  PM----|   PM|     PM|     PM----|   PM|     PM|
  S S S S E S S E E S S E   S S S S E S S E E S S E
|-------------------------|-------------------------|
|-------------------------|-------------------------|
|---------4-----4-2-----2-|---------5-----5-4-----5-|
|---------2-----2-2-----2-|---------5-----5-5-----5-|
|-0-0-0-0---0-0-----0-0---|-0-0-0-0---0-0-----0-0---|
|-------------------------|-------------------------|


  PM----|   PM|     PM|     PM----|   PM|     PM|
  S S S S E S S E E S S E   S S S S E S S E E S S E
|-------------------------|----------------------------|
|-------------------------|----------------------------|
|---------4-----4-2-----2-|---------5-----5-4-----5----|
|---------2-----2-2-----2-|---------5-----5-5-----5----|
|-0-0-0-0---0-0-----0-0---|-0-0-0-0---0-0-----0-0------|
|-------------------------|----------------------------|


   Verse 2
   4/4
    Gtr I
    E E E E +H          E E E E +H
||--------3-(3)-------|-------3-(3)-------|
||o---0-1-------------|---0-1-------------|
||--------------------|-------------------|
||--------------------|-------------------|
||o-0-----------------|-2-----------------|
||--------------------|-------------------|
|
|   Gtr II
|   PM|   PM    PM|
|   E E E E  E  E E E   E E E E  E  E E E
||--------------------|-------------------|
||o-------------------|-------------------|
||------5----5------5-|-----5----5----4-5-|
||------2----2------2-|-----2----2----2-2-|
||o-0-0---0-----0-0---|-0-0---0-----0-----|
||--------------------|-------------------|


  E E E E +H          E E E E +H
|-------3-(3)-------|-------3-(3)--------||
|---0-1-------------|---0-1-------------o||
|-------------------|--------------------||
|-------------------|-0------------------||
|-3-----------------|-------------------o||
|-------------------|--------------------||
|
| PM|   PM    PM|
| E E E E  E  E E E   E E E E  E  E E E
|-------------------|--------------------||
|-------------------|-------------------o||
|-----5----5------5-|-----5----5----4-5--||
|-----2----2------2-|-----2----2----2-2--||
|-0-0---0-----0-0---|-0-0---0-----0-----o||
|-------------------|--------------------||


  E  E Q  H         E  E Q   H          E  E Q  H         E  E Q   H
|------3--5------|-------3---5--------|------3--5------|-------3---5--------|
|----------------|--------------------|----------------|--------------------|
|----2-----------|-----2--------------|----2-----------|-----2--------------|
|-3--------------|--3-----------------|-2--------------|--2-----------------|
|----------------|--------------------|----------------|--------------------|
|----------------|--------------------|----------------|--------------------|
|
|            PM        PM  PM                      PM        PM  PM
| H.         E E   +E  E E E E E +Q     H.         E E   +E  E E E E E +Q
|----------------|--------------------|----------------|--------------------|
|----------------|--------------------|----------------|--------------------|
|--------------5-|-(5)---4---4-5-(5)--|-2------------5-|-(5)---4---4-5-(5)--|
|-3------------3-|-(3)---3---3-3-(3)--|-2------------2-|-(2)---2---2-2-(2)--|
|-3--------------|--------------------|-0----------0---|-----0---0----------|
|-1----------1---|-----1---1----------|----------------|--------------------|


  E  E Q  H         E  E Q   H          E E Q  H      W
|------3--5------|-------3---5--------|-----3--5----|-----------------|
|----------------|--------------------|-------------|-----------------|
|----2-----------|-----2--------------|---2---------|-----------------|
|-3--------------|--3-----------------|-2-----------|-----------------|
|----------------|--------------------|-------------|-----------------|
|----------------|--------------------|-------------|-----------------|
|
|            PM        PM  PM                         PM----|
| H.         E E   +E  E E E E E +Q     W             E E E E E E E E
|----------------|--------------------|-------------|-----------------|
|----------------|--------------------|-------------|-----------------|
|--------------5-|-(5)---4---4-5-(5)--|-------------|-----------------|
|-3------------3-|-(3)---3---3-3-(3)--|-5-----------|-----------------|
|-3--------------|--------------------|-5-----------|-0-0-0-0-3-2-0---|
|-1----------1---|-----1---1----------|-3-----------|---------------3-|


   Chorus 2
    Gtr II
    H.      +E  E   +Q.   E +H       H.      +E  E   +Q.   Q.   Q
||----------------|----------------|---------------|----------------|
||o---------------|----------------|---------------|----------------|
||--2-------(2)---|----------------|-2-------(2)---|----------------|
||--2-------(2)-3-|-(3)---5-(5)----|-2-------(2)-3-|-(3)---5--------|
||o-0-------(0)-3-|-(3)---5-(5)----|-0-------(0)-3-|-(3)---5--------|
||--------------1-|-(1)---3-(3)----|-------------1-|-(1)---3----0---|
|
|   Gtrs III, IV
|   W                W               W                W
||----------------|----------------|---------------|----------------|
||o---------------|----------------|---------------|----------------|
||----------------|----------------|---------------|----------------|
||----------------|----------------|---------------|----------------|
||o---------------|----------------|---------------|----------------|
||----------------|----------------|---------------|----------------|


  H.      +E  E   +Q.   E +H
|---------------|----------------|
|---------------|----------------|
|-2-------(2)---|----------------|
|-2-------(2)-3-|-(3)---5-(5)----|
|-0-------(0)-3-|-(3)---5-(5)----|
|-------------1-|-(1)---3-(3)----|
|
| W                W
|---------------|----------------|
|---------------|----------------|
|---------------|----------------|
|---------------|----------------|
|---------------|----------------|
|---------------|----------------|


  H.      +E  E       +W
|-------------------|--------------------------||
|-------------------|-------------------------o||
|-------------------|--------------------------||
|-3-------(3)-5-----|-(5)----------------------||
|-3-------(3)-5-----|-(5)---------------------o||
|-1-------(1)-3-----|-(3)----------------------||
|
| H.       E  E       +Q.    E E S    +S  Q
|---------/5--------|--------8-----------------||
|---------/3--8b10==|=(8)r---6-8-8b10r(8)-5---o||
|-------------5b7===|=(5)r-----5-5b7r==5--2----||
|-------------------|--------------------------||
|-------------------|-------------------------o||
|-------------------|--------------------------||
  H.       E  E       +Q.    E E S     S  Q


  Gtr II
  PM----|   PM|     PM|     PM----|   PM|     PM|
  S S S S E S S E E S S E   S S S S E S S E E S S E
|-------------------------|-------------------------|
|-------------------------|-------------------------|
|---------4-----4-2-----2-|---------5-----5-4-----5-|
|---------2-----2-2-----2-|---------5-----5-5-----5-|
|-0-0-0-0---0-0-----0-0---|-0-0-0-0---0-0-----0-0---|
|-------------------------|-------------------------|


  PM----|   PM|     PM|     PM----|   PM|     PM|
  S S S S E S S E E S S E   S S S S E S S E E S S E
|-------------------------|----------------------------|
|-------------------------|----------------------------|
|---------4-----4-2-----2-|---------5-----5-4-----5----|
|---------2-----2-2-----2-|---------5-----5-5-----5----|
|-0-0-0-0---0-0-----0-0---|-0-0-0-0---0-0-----0-0------|
|-------------------------|----------------------------|


  PM----|   PM|     PM|     PM----|   PM|     PM|
  S S S S E S S E E S S E   S S S S E S S E E S S E
|-------------------------|-------------------------|
|-------------------------|-------------------------|
|---------4-----4-2-----2-|---------5-----5-4-----5-|
|---------2-----2-2-----2-|---------5-----5-5-----5-|
|-0-0-0-0---0-0-----0-0---|-0-0-0-0---0-0-----0-0---|
|-------------------------|-------------------------|


  PM----|   PM|     PM|     PM----|   PM|     PM|
  S S S S E S S E E S S E   S S S S E S S E E S S E
|-------------------------|----------------------------|
|-------------------------|----------------------------|
|---------4-----4-2-----2-|---------5-----5-4-----5----|
|---------2-----2-2-----2-|---------5-----5-5-----5----|
|-0-0-0-0---0-0-----0-0---|-0-0-0-0---0-0-----0-0------|
|-------------------------|----------------------------|


 Solo
  Gtr II
             PM         PM  PM
    H.       E  E   +E  E E E E    E   +Q
|-----------------|-----------------------------|
|-----------------|-----------------------------|
|---------------5-|-(5)---4---4----5---(5)------|
|---3-----------3-|-(3)---3---3----3---(3)------|
|---3-------------|-----------------------------|
|---1--------1----|-----1---1-------------------|
|
| Gtr III
|   ~~~~             ~~~
|                             |--3---|  |--3--|
|   H.       E  E    H        E  E   E  E  E  E
|-----------------|-----------------------------|
|-/10-------10-12-|--8--------8-10--------------|
|-----------------|------------------7--9--7----|
|-----------------|--------------------------10-|
|-----------------|-----------------------------|
|-----------------|-----------------------------|


           PM                 PM  PM
  H.       E      E       +E  E E E   E   E   +Q
|----------------------|-------------------------------|
|----------------------|-------------------------------|
|-2---------------5----|--(5)---4-----4---5---(5)------|
|-2---------------2----|--(2)---2-----2---2---(2)------|
|-0--------0-----------|------0---0--------------------|
|----------------------|-------------------------------|
|
| ~~~~~~~~~~~~~~~~         ~~~~         PM--|
|          |----3----|                |--3--|  |-3--|
| H.      +E  +E     E     H          E E   E  E  E E
|----------------------|-------------------------------|
|----------------------|-------------------------------|
|----------------------|-------------------------------|
|-9-------(9)-(9)------|----------------7---9-10--9-7--|
|-------------------10-|-/12--------/10----------------|
|----------------------|-------------------------------|


                        PM              PM          PM
   H.                   E    E      +E  E      E    E       E E   +Q
|---------------------------------|-------------------------------------------|
|---------------------------------|-------------------------------------------|
|----------------------------5----|-(5)--------4------------4-5---(5)---------|
|--3-------------------------3----|-(3)--------3------------3-3---(3)---------|
|--3------------------------------|-------------------------------------------|
|--1--------------------1---------|-----1-----------1-------------------------|
|
| Gtrs III, IV
|  |-3--| |--3--|       |---3---|                   |-3--|              |-3-|
|  E  E E E  E  E  Q   +E  E    E    E  S  S  +S  S S  S S  E S S +S  S S S S
|---------8-------10--(10)-8---10-|-12----10-(10)---8-10-8------8-(8)---7-8-7-|
|-----------12-10-----------------|------------------------12-----------------|
|-10--9-7-------------------------|-------------------------------------------|
|---------------------------------|-------------------------------------------|
|---------------------------------|-------------------------------------------|
|---------------------------------|-------------------------------------------|


                    PM----|
  W                 E E E E  E E    E    E
|----------------|--------------------------|
|----------------|--------------------------|
|----------------|--------------------------|
|-5--------------|--------------------------|
|-5--------------|--0-0-0-0--3-2----0-------|
|-3--------------|-----------------------3--|
|
| ~~                ~~
|                            |----3----|
| H.      +E   E    H        Q    q    q
|-------------15-|-16-------17---19---20----|
|-8-------(8)--8-|--9-------10---12---13----|
|----------------|--------------------------|
|----------------|--------------------------|
|----------------|--------------------------|
|----------------|--------------------------|
  H.       E   E    H        Q    q    q
                             |----3----|


   Out Chorus'
     H.      +E  E   +Q.   E +H       H.      +E  E   +Q.   Q.   Q
||-----------------|----------------|---------------|----------------|
||o----------------|----------------|---------------|----------------|
||---2-------(2)---|----------------|-2-------(2)---|----------------|
||---2-------(2)-3-|-(3)---5-(5)----|-2-------(2)-3-|-(3)---5--------|
||o--0-------(0)-3-|-(3)---5-(5)----|-0-------(0)-3-|-(3)---5--------|
||---------------1-|-(1)---3-(3)----|-------------1-|-(1)---3----0---|
|
|    W                W               W                W
||--24-------------|----------------|---------------|----------------|
||o-17-------------|----------------|---------------|----------------|
||-----------------|----------------|---------------|----------------|
||-----------------|----------------|---------------|----------------|
||o----------------|----------------|---------------|----------------|
||-----------------|----------------|---------------|----------------|
     W


  H.      +E  E   +Q.   E +H       H.      +E  E   +W
|---------------|----------------|---------------|----------------------------||
|---------------|----------------|---------------|---------------------------o||
|-2-------(2)---|----------------|---------------|----------------------------||
|-2-------(2)-3-|-(3)---5-(5)----|-3-------(3)-5-|-(5)------------------------||
|-0-------(0)-3-|-(3)---5-(5)----|-3-------(3)-5-|-(5)-----------------------o||
|-------------1-|-(1)---3-(3)----|-1-------(1)-3-|-(3)------------------------||
|
| Gtr III
|                                                           |--3--|  |--3--|
| W                W               W                H       E  E  E  E  E  E
|---------------|----------------|---------------|----------------------------||
|---------------|----------------|---------------|--------/10-12-13-12-10----o||
|---------------|----------------|---------------|------------------------12--||
|---------------|----------------|---------------|----------------------------||
|---------------|----------------|---------------|---------------------------o||
|---------------|----------------|---------------|----------------------------||


   H.                +E   E      +Q.        E       +H
|------------------------------|-------------------------------|
|------------------------------|-------------------------------|
|--2-----------------(2)-------|-------------------------------|
|--2-----------------(2)--3----|-(3)--------5-------(5)--------|
|--0-----------------(0)--3----|-(3)--------5-------(5)--------|
|-------------------------1----|-(1)--------3-------(3)--------|
|
|         ~~~~~~~~~~~~~~~
|  |--3---|                                 |--3--|  |--3---|
|  E   E  E  +H      +E   S  S    Q      E  S  S  S  Q   Q  Q
|------------------------------|---------------------------15--|
|-10--13-15-(15)----(15)-13-15-|-15b17--15-13-15-13-12--13-----|
|------------------------------|-------------------------------|
|------------------------------|-------------------------------|
|------------------------------|-------------------------------|
|------------------------------|-------------------------------|


   H.                       +E  E   +Q.                    Q.                 Q
|---------------------------------|------------------------------------------------------|
|---------------------------------|------------------------------------------------------|
|--2------------------------(2)---|------------------------------------------------------|
|--2------------------------(2)-3-|-(3)--------------------5-----------------------------|
|--0------------------------(0)-3-|-(3)--------------------5-----------------------------|
|-------------------------------1-|-(1)--------------------3------------------0----------|
|
|                        ~~
|        |-----3-----|               |--3---|
|  Q.    S  +S      +S   H           S   S  S  S  S  S  S  S   S  S  S  S  S  S  S  S  S
|---------------------------------|-12--13-12----------15-13--12----------17-15-13-15-17-|
|-12----12-(12)b13r(12)-10--------|-----------15-13-12-----------15-13-12----------------|
|---------------------------------|------------------------------------------------------|
|---------------------------------|------------------------------------------------------|
|---------------------------------|------------------------------------------------------|
|---------------------------------|------------------------------------------------------|


   H.                        +E   E       +Q.            E    +H
|--------------------------------------|-----------------------------------------------|
|--------------------------------------|-----------------------------------------------|
|--2-------------------------(2)-------|-----------------------------------------------|
|--2-------------------------(2)--3----|--(3)------------5----(5)----------------------|
|--0-------------------------(0)--3----|--(3)------------5----(5)----------------------|
|---------------------------------1----|--(1)------------3----(3)----------------------|
|
|                                          ~~~~
|        |-----3-----|                          |--3--|
|  Q.    S  +S      +S   Q.       S  S    +Q    S  S  S  S  S  S   S  S  S  S  S  S  S
|-19----19-(19)b20r(19)-17-------15-17-|-(17)--17-20-17-15-17-15--13-12----12----------|
|--------------------------------------|--------------------------------15----13-15-12-|
|--------------------------------------|-----------------------------------------------|
|--------------------------------------|-----------------------------------------------|
|--------------------------------------|-----------------------------------------------|
|--------------------------------------|-----------------------------------------------|


   H.                          +E  E    +W
|------------------------------------|---------|
|------------------------------------|---------|
|------------------------------------|---------|
|--3---------------------------(3)-5-|--(5)----|
|--3---------------------------(3)-5-|--(5)----|
|--1---------------------------(1)-3-|--(3)----|
|
|                          ~~~~~~~~~~~~~~~~~
|  S   S  S  S S  S  +E   +H            +W
|------------------------------------|---------|
|-13--12-10-12-8-10-(10)-(10)--------|-(10)----|
|------------------------------------|---------|
|------------------------------------|---------|
|------------------------------------|---------|
|------------------------------------|---------|


    H.      +E  E   +Q.   E    +H       H.                           +E      E
|-----------------|-------------------|------------------------------------------|
|-----------------|-------------------|------------------------------------------|
|---2-------(2)---|-------------------|-2----------------------------(2)---------|
|---2-------(2)-3-|-(3)---5----(5)----|-2----------------------------(2)-----3---|
|---0-------(0)-3-|-(3)---5----(5)----|-0----------------------------(0)-----3---|
|---------------1-|-(1)---3----(3)----|--------------------------------------1---|
|
|   ~~~~~~~~~~~~~~~~~~~~        ~~~
|   W                Q.   S  S  H       S  S  S S S  S S S  S S S  S  S   S  S S
|-----------------|-------------------|----------------------------------------8-|
|-/10-------------|-------------------|-------------------------------8--10-12---|
|-----------------|-------------------|-----------------------7-9-10-------------|
|-----------------|--9----7-----7-----|----------------7-9-10--------------------|
|-----------------|---------10--------|---------7-8-10---------------------------|
|-----------------|-------------------|-7--8-10----------------------------------|


  +Q.              Q.                 Q
|------------------------------------------|
|------------------------------------------|
|------------------------------------------|
|-(3)--------------5-----------------------|
|-(3)--------------5-----------------------|
|-(1)--------------3------------------0----|
|
|                                ~~~~~
|  S  S  S S  S S  S   +S   +E   Q.
|-12--8---------8-10--(10)-(10)-10b12------|
|-------10---10----------------------------|
|----------9-------------------------------|
|------------------------------------------|
|------------------------------------------|
|------------------------------------------|


   H.                       +E      E      +Q.         E      +H
|----------------------------------------|-------------------------------------|
|----------------------------------------|-------------------------------------|
|--2------------------------(2)----------|-------------------------------------|
|--2------------------------(2)-----3----|-(3)---------5------(5)--------------|
|--0------------------------(0)-----3----|-(3)---------5------(5)--------------|
|-----------------------------------1----|-(1)---------3------(3)--------------|
|
|                                                      ~~~~~~~
|                                                                   |--3--|
|  Q      S  S  S  S  Q      S   S  S  S    Q      E   E      +Q    S  S  S  E
|--------15-----------------15-----------|-15b17-------------------------------|
|-15b17-----15-13-15-15b17------15-13-15-|--------13-[15]b17-(15)--13-15-13-12-|
|----------------------------------------|-------------------------------------|
|----------------------------------------|-------------------------------------|
|----------------------------------------|-------------------------------------|
|----------------------------------------|-------------------------------------|


   H.                        +E  E    +W
|----------------------------------|---------|
|----------------------------------|---------|
|----------------------------------|---------|
|--3-------------------------(3)-5-|--(5)----|
|--3-------------------------(3)-5-|--(5)----|
|--1-------------------------(1)-3-|--(3)----|
|
|      ~~~~~~~~~~~~
|  S   S  +E   +E   S  S  H           +W
|----------------------------------|---------|
|-13--12-(12)-(12)-13-12-10--------|-(10)----|
|----------------------------------|---------|
|----------------------------------|---------|
|----------------------------------|---------|
|----------------------------------|---------|


   H.        +E          E      +Q.    E       +H
|-----------------------------|-----------------------------------------|
|-----------------------------|-----------------------------------------|
|--2---------(2)--------------|-----------------------------------------|
|--2---------(2)---------3----|-(3)----5-------(5)----------------------|
|--0---------(0)---------3----|-(3)----5-------(5)----------------------|
|------------------------1----|-(1)----3-------(3)----------------------|
|
|                                ~~~
|                                      |--3--|
|  H.         S   S      S  S    Q.    S  S  S  S   S  S  S  S  S  S  S
|------------24---------------|-----------------------------------------|
|-22b24----------22pb24r22-20-|-22----20-22-20-18--20-18-17-------------|
|-----------------------------|-----------------------------19-17-19-17-|
|-----------------------------|-----------------------------------------|
|-----------------------------|-----------------------------------------|
|-----------------------------|-----------------------------------------|


   H.                +E  E   +Q.            Q.              Q
|--------------------------|-----------------------------------------------|
|--------------------------|-----------------------------------------------|
|--2-----------------(2)---|-----------------------------------------------|
|--2-----------------(2)-3-|-(3)------------5------------------------------|
|--0-----------------(0)-3-|-(3)------------5------------------------------|
|------------------------1-|-(1)------------3---------------0--------------|
|
|  ~~~       ~~~~~~~~~~~~                                      ~~~~~~~~~~~
|                             |--3--|  |---3----|  |--3--|  |----3-----|
|  H      S  S  +E   +Q       E  E  E  E  E     E  E  E  E  E  E      +E
|--------------------------|-------------------12-13-15-17-19-15b17==(15)--|
|--------------------------|-------12-13-15--------------------------------|
|-16-----12-14-(14)-(14)---|-12S14-----------------------------------------|
|--------------------------|-----------------------------------------------|
|--------------------------|-----------------------------------------------|
|--------------------------|-----------------------------------------------|


    H.                  +E      E      +Q.              E +H
|------------------------------------|---------------------------------------------|
|------------------------------------|---------------------------------------------|
|---2-------------------(2)----------|---------------------------------------------|
|---2-------------------(2)-----3----|-(3)--------------5-(5)----------------------|
|---0-------------------(0)-----3----|-(3)--------------5-(5)----------------------|
|-------------------------------1----|-(1)--------------3-(3)----------------------|
|
|   ~~~~~~~~~~~~~
|                        |----3----|    |---3---|
|  +Q.     E      +Q    +E    E    E    E   E  +E   +Q     S   S  S  S  S  S  S  S
|-(15)r---15b17==(15)--(15)r-17---19-|-15-----------------20--19-------20-19-------|
|------------------------------------|-----17-(17)-(17)----------20-17-------20-17-|
|------------------------------------|---------------------------------------------|
|------------------------------------|---------------------------------------------|
|------------------------------------|---------------------------------------------|
|------------------------------------|---------------------------------------------|


   H.                                              +E     E    +W
|-----------------------------------------------------------|-------------------------|
|-----------------------------------------------------------|-------------------------|
|-----------------------------------------------------------|-------------------------|
|--3-----------------------------------------------(3)----5-|--(5)--------------------|
|--3-----------------------------------------------(3)----5-|--(5)--------------------|
|--1-----------------------------------------------(1)----3-|--(3)--------------------|
|
|  |-----5------|  |-----5-----|  |------6-------|                        |---3----|
|  S   S  S  S  S  S  S  S  S  S  S  S  S  S  S  S  Q          +H.       +E   +E   E
|-20--19-------20-19-------20-19-------20-19-------22b24====|=(22)------(22)r(22)-20--|
|--------20-17-------20-17-------20-17-------20-17----------|-------------------------|
|-----------------------------------------------------------|-------------------------|
|-----------------------------------------------------------|-------------------------|
|-----------------------------------------------------------|-------------------------|
|-----------------------------------------------------------|-------------------------|


   H.                     +E      E      +Q.              E     +H
|--------------------------------------|-----------------------------------------------|
|--------------------------------------|-----------------------------------------------|
|--2----------------------(2)----------|-----------------------------------------------|
|--2----------------------(2)-----3----|-(3)--------------5-----(5)--------------------|
|--0----------------------(0)-----3----|-(3)--------------5-----(5)--------------------|
|---------------------------------1----|-(1)--------------3-----(3)--------------------|
|
|                          |----3----|                           |---3---|  |---3----|
|  Q       E  +E   Q       E  +E     E    E     +E   +E   E      E  +E   E  E     E  E
|-22b24===22r(22)-22b24===22r(22)---20-|-22b24r(22)-(22)-22b24==22r(22)-20-22b24-22-20-|
|--------------------------------------|-----------------------------------------------|
|--------------------------------------|-----------------------------------------------|
|--------------------------------------|-----------------------------------------------|
|--------------------------------------|-----------------------------------------------|
|--------------------------------------|-----------------------------------------------|


   H.                           +E     E      +Q.   Q.    Q
|-------------------------------------------|----------------------------|
|-------------------------------------------|----------------------------|
|--2----------------------------(2)---------|----------------------------|
|--2----------------------------(2)----3----|-(3)---5--------------------|
|--0----------------------------(0)----3----|-(3)---5--------------------|
|--------------------------------------1----|-(1)---3-----0--------------|
|
|                                              ~~~
|  |---3----|  |--3--|  |--3--|                           |--3--|
|  E     E  E  E  E  E  E  E  E  E     S  S    H.         S  S  S  S  S
|-22b24-22-20-19-20-19----------------------|----------------------------|
|----------------------20-17-20-22b24-22-20-|-22---------17-20-17----17--|
|-------------------------------------------|---------------------19-----|
|-------------------------------------------|----------------------------|
|-------------------------------------------|----------------------------|
|-------------------------------------------|----------------------------|


   H.                                           +E     E
|-----------------------------------------------------------|
|-----------------------------------------------------------|
|--2--------------------------------------------(2)---------|
|--2--------------------------------------------(2)----3----|
|--0--------------------------------------------(0)----3----|
|------------------------------------------------------1----|
|
|                                                |---3----|
|  S   S  S  S  S  S  S      S  S  S     +S   S  E   E    E
|-----17-20-17----17-----------17---------------------------|
|-20-----------20----17pb19r15----15b17r(15)-13-----13---12-|
|-----------------------------------------------14----------|
|-----------------------------------------------------------|
|-----------------------------------------------------------|
|-----------------------------------------------------------|


  +Q.             E     +H       H.      +E  E   +W
|------------------------------|---------------|--------*|
|------------------------------|---------------|--------*|
|------------------------------|---------------|--------*|
|-(3)-------------5-----(5)----|-3-------(3)-5-|-(5)----*|
|-(3)-------------5-----(5)----|-3-------(3)-5-|-(5)----*|
|-(1)-------------3-----(3)----|-1-------(1)-3-|-(3)----*|
|
|                        ~~~~
|  |--3---|  |---3---|
|  E   E  E  E  E    E  +H       W                W
|------------------------------|---------------|--------*|
|-13--12----12-----------------|---------------|--------*|
|--------14----12---14-(14)----|---------------|--------*|
|------------------------------|---------------|--------*|
|------------------------------|---------------|--------*|
|------------------------------|---------------|--------*|


Duration Legend
---------------
W - whole; H - half; Q - quarter; E - 8th; S - 16th; T - 32nd; X - 64th; a - acciaccatura
+ - note tied to previous; . - note dotted; .. - note double dotted
Uncapitalized letters represent notes that are staccato (1/2 duration)
Irregular groupings are notated above the duration line
Duration letters will always appear directly above the note/fret number it represents the
duration for.  Duration letters with no fret number below them represent rests.  Multi-
bar rests are notated in the form Wxn, where n is the number of bars to rest for.  Low
melody durations appear below the staff

Tablature Legend
----------------
 h   - hammer-on
 p   - pull-off
 b   - bend
 pb  - pre-bend
 r   - bend release (if no number after the r, then release immediately)
 /\  - slide into or out of (from/to "nowhere")
 s   - legato slide
 S   - shift slide
  - natural harmonic
[n]  - artificial harmonic
n(n) - tapped harmonic
 ~   - vibrato
 tr  - trill
 T   - tap
 TP  - trem. picking
 PM  - palm muting
\n/  - tremolo bar dip; n = amount to dip
 \n  - tremolo bar down
 n/  - tremolo bar up
/n\  - tremolo bar inverted dip
 =   - hold bend; also acts as connecting device for hammers/pulls
 <>  - volume swell (louder/softer)
 x   - on rhythm slash represents muted slash
 o   - on rhythm slash represents single note slash

Misc Legend
-----------
 |  - bar
||  - double bar
||o - repeat start
o|| - repeat end
*|  - double bar (ending)
 :  - bar (freetime)
 $  - Segno
 &  - Coda
Tempo markers -  = BPM(8/16=s8/s16), where s8 = swing 8ths, s16 = swing 16ths


***************************************************************************************
***************************************************************************************





Comments


Popular Edens Curse tabs & chords
After The Love Is Gone Tabs
Angels And Demons Tabs
Fallen King Tabs
Heaven Touch Me Tabs
Just Like Judas Tabs
Trinity Tabs


Song lyrics



↑ Back to top | Tablatures and chords are parodies/interpretations of the original songs. You may use it for private study, scholarship, research or language learning purposes only
© 2014 AZChords.com Contact us | Privacy policy | DMCA | Add/correct tabs | Request tabs | Top 50 tabs