>
 >
Just Like Judas

Just Like Judas Guitar Tabs

Edens Curse - Just Like Judas chords, tabs, tablatures, lyrics

Guitar lessons | Add/correct | Request | Top 50 tabs Artists:  A B C D E F G H I J K L M N O P Q R S T U V W X Y Z 0-9

Just Like Judas Guitar Tabs – Edens Curse

CD, Sheet music, Poster

Do you like Just Like Judas? Share with your friends now
Tabs
#------------------------------------------------------------------------------##

                                 JUST LIKE JUDAS
                           As recorded by Eden's Curse
                     (From the 2008 Album THE SECOND COMING)


Gtr I (Eb Ab Db Gb Bb Eb) - 'Guitar 1'
Gtr II (D# G# C# F# A# D#) - 'Guitar 2'
Gtr III (Eb Ab Db Gb Bb Eb) - 'Lead 1'
Gtr IV (Eb Ab Db Gb Bb Eb) - 'Lead 2'

  Q=110
 4/4
  Gtrs I, II
                  PM|         PM|                 PM|     PM|
  H.      Q     E S S E E +E  S S E E   +Q   +E   S  S  E S S  E E
|-------------|-----------------------|----------------------------|
|-------------|-----------------------|----------------------------|
|-------------|-------4-5-(5)-----4-2-|-(2)--(2)--------2------2-4-|
|-------------|-------2-2-(2)-----2-0-|-(0)--(0)--0--0--0-0-0--0-2-|
|-------------|-----------------------|----------------------------|
|---------x\--|-0-0-0---------0-0-----|----------------------------|
|
| Gtrs III, IV
| W             W                        Q    E   S  S  Q      Q
|-------------|-----------------------|----------15-17-19-----17---|
|-------------|-----------------------|----------17-19-20-----19---|
|-------------|-----------------------|----------------------------|
|-------------|-----------------------|----------------------------|
|-------------|-----------------------|----------------------------|
|-------------|-----------------------|----------------------------|
                                         Q    E   S  S  Q      Q


     PM|         PM|                  PM|     PM|
   E S S E E +E  S S E E    +Q   +E   S  S  E S S  E E
|------------------------|-----------------------------|
|------------------------|-----------------------------|
|--------4-5-(5)-----4-2-|--(2)--(2)--------2------2-4-|
|--------2-2-(2)-----2-0-|--(0)--(0)--0--0--0-0-0--0-2-|
|------------------------|-----------------------------|
|--0-0-0---------0-0-----|-----------------------------|
|
|  W                        +Q.       S  S  Q      Q
|-15---------------------|-(15)------15-17-19-----17---|
|-17---------------------|-(17)------17-19-20-----19---|
|------------------------|-----------------------------|
|------------------------|-----------------------------|
|------------------------|-----------------------------|
|------------------------|-----------------------------|
   W                        +Q.       S  S  Q      Q


     PM|         PM|                  PM|     PM|
   E S S E E +E  S S E E    +Q   +E   S  S  E S S  E E
|------------------------|-----------------------------|
|------------------------|-----------------------------|
|--------4-5-(5)-----4-2-|--(2)--(2)--------2------2-4-|
|--------2-2-(2)-----2-0-|--(0)--(0)--0--0--0-0-0--0-2-|
|------------------------|-----------------------------|
|--0-0-0---------0-0-----|-----------------------------|
|
|  W                        +Q.       S  S  Q      Q
|-15---------------------|-(15)------15-17-19-----17---|
|-17---------------------|-(17)------17-19-20-----19---|
|------------------------|-----------------------------|
|------------------------|-----------------------------|
|------------------------|-----------------------------|
|------------------------|-----------------------------|
   W                        +Q.       S  S  Q      Q


            ~~~~~~~~       ~~~~~~~~~~
   E  E  E  E   +E   E  E  E     +E   E  E  E  S  S E  Q
|-----------------------------|----------------------------|
|-----------------------------|----------------------------|
|-----------------------------|----------------------------|
|-----------------------------|----------------0--2----0---|
|--0-----0-[2]--(2)--0----[3]-|--(3)--2--0-----------------|
|-----3-----------------3-----|-------------3--------------|
|
|  E  E  E  E   +E   E  E  E     +E   E  E  E  S  S E  Q
|-17-15-17-19--(19)-17-15-20--|-(20)-19-17-15--------------|
|-19-17-19-20--(20)-19-17-22--|-(22)-20-19-17-15-17---15---|
|-----------------------------|---------------14-16---14---|
|-----------------------------|----------------------------|
|-----------------------------|----------------------------|
|-----------------------------|----------------------------|
   E  E  E  E   +E   E  E  E     +E   E  E  E  S  S E  Q


    W            +W           +W          +W
||-------------|------------|-----------|--------------|
||o-5----------|-(5)--------|-(5)-------|-(5)----------|
||--4----------|-(4)--------|-(4)-------|-(4)----------|
||--2----------|-(2)--------|-(2)-------|-(2)----------|
||o-2----------|-(2)--------|-(2)-------|-(2)----------|
||--0----------|-(0)--------|-(0)-------|-(0)----------|
|
|      W          W            W           H     H
||-------------|------------|-----------|--------------|
||o---17-------|-<5>--------|-----------|--------------|
||----16-------|-<5>--------|-----------|--------------|
||-------------|------------|-----------|--------------|
||o------------|------------|-----------|--------------|
||-------------|------------|--xs=======|==x-----x/----|
                  W


 Verse
  PM--|     PM--|       PM--|   PM|   PM
  E S S E E E S S E E   E S S E S S E S S E E
|---------------------|-----------------------|
|---------------------|-----------------------|
|---------------------|-----------------------|
|-------5-4-------4-2-|-------2-----4-----4-5-|
|-------7-5-------5-3-|-------3-----5-----5-7-|
|-0-0-0-----0-0-0-----|-0-0-0---0-0---0-0-----|


  PM--|     PM--|
  E S S E E E S S E E   +E  E E E  E E E E
|---------------------|-----0--------0-------|
|---------------------|-------3--------3-----|
|---------------------|---------0--------0---|
|-------5-4-------4-2-|-(2)------------------|
|-------7-5-------5-3-|-(3)-------/5---------|
|-0-0-0-----0-0-0-----|----------------------|


  PM--|     PM--|       PM--|   PM|   PM|
  E S S E E E S S E E   E S S E S S E S S E E
|---------------------|-----------------------|
|---------------------|-----------------------|
|---------------------|-----------------------|
|-------5-4-------4-2-|-------2-----4-----4-5-|
|-------7-5-------5-3-|-------3-----5-----5-7-|
|-0-0-0-----0-0-0-----|-0-0-0---0-0---0-0-----|


  PM--|     PM--|
  E S S E E E S S E E   +E  E E E  E E E E
|---------------------|-----0--------0-------|
|---------------------|-------3--------3-----|
|---------------------|---------0--------0---|
|-------5-4-------4-2-|-(2)------------------|
|-------7-5-------5-3-|-(3)-------/5---------|
|-0-0-0-----0-0-0-----|----------------------|


  PM--|     PM--|       PM--|   PM|   PM|
  E S S E E E S S E E   E S S E S S E S S E E
|---------------------|-----------------------|
|---------------------|-----------------------|
|---------------------|-----------------------|
|-------5-4-------4-2-|-------2-----4-----4-5-|
|-------7-5-------5-3-|-------3-----5-----5-7-|
|-0-0-0-----0-0-0-----|-0-0-0---0-0---0-0-----|


  PM--|     PM--|
  E S S E E E S S E E   +E  E E E  E E E E
|---------------------|-----0--------0-------|
|---------------------|-------3--------3-----|
|---------------------|---------0--------0---|
|-------5-4-------4-2-|-(2)------------------|
|-------7-5-------5-3-|-(3)-------/5---------|
|-0-0-0-----0-0-0-----|----------------------|


                                 PM|
  S S E S S E S S E S S E   +Q   S S E +H       S S S S E  E S S S S E E
|-------------------------|-------------------|--------------------------|
|-------------------------|-------------------|--------------------------|
|-----5-----4-----7-----5-|-(5)------4-(4)----|--------------------------|
|-------------------------|-------------------|---------9-10---------9-7-|
|-0-0---0-0---0-0---0-0---|------2-2----------|---------7--7---------7-5-|
|-------------------------|-------------------|-0-0-0-0------0-0-0-0-----|


                                                           PM|
  S S S S Q   S S S S E E   S S E S S E S S E S S E   +Q   S S E +H
|-------------------------|-------------------------|-------------------|
|-------------------------|-------------------------|-------------------|
|-------------------------|-----5-----4-----7-----5-|-(5)------4-(4)----|
|---------9\----------9-7-|-------------------------|-------------------|
|---------7\----------7-7-|-0-0---0-0---0-0---0-0---|------2-2----------|
|-0-0-0-0-----0-0-0-0-----|-------------------------|-------------------|


  E S S E S S E S S E S S   E S S E S S E S S E S S
|-------------------------|-------------------------|
|-------------------------|-------------------------|
|-5-----5-----5-----5-----|-7-----7-----7-----7-----|
|-5-----5-----5-----5-----|-7-----7-----7-----7-----|
|-3-3-3-3-3-3-3-3-3-3-3-3-|-5-5-5-5-5-5-5-5-5-5-5-5-|
|-------------------------|-------------------------|


 Chorus
              PM|               PM|
  E E E E E E S S E   +E  E E E S S Q.
|-------------------|--------------------|
|-------------------|--------------------|
|-------------------|--------------------|
|-9-7-9-7---9-----9-|-(9)-7-9-7-----9\---|
|-7-5-7-5---7-----7-|-(7)-5-7-5-----7\---|
|-------------0-0---|-----------0-0------|


  E E E E E E E   E    +E   E  E E q  q
|-------------------|----------------------|
|-------------------|----------------------|
|-------------------|----------------------|
|-9-7-9-7---9---/12-|-(12)-12-11---7--7----|
|-7-5-7-5---7---/10-|-(10)-10--9---5--5----|
|-------------------|----------------------|


              PM|               PM|
  E E E E E E S S E   +E  E E E S S Q.
|-------------------|--------------------|
|-------------------|--------------------|
|-------------------|--------------------|
|-9-7-9-7---9-----9-|-(9)-7-9-7-----9\---|
|-7-5-7-5---7-----7-|-(7)-5-7-5-----7\---|
|-------------0-0---|-----------0-0------|


  E E E E E E E   E    +E   E  E E q  q
|-------------------|-----------------------||
|-------------------|----------------------o||
|-------------------|-----------------------||
|-9-7-9-7---9---/12-|-(12)-12-11---7--7-----||
|-7-5-7-5---7---/10-|-(10)-10--9---5--5----o||
|-------------------|-----------------------||


 Solo
  Gtr I
  E E E E E E E   E   +E  E E E E   Q.
|-------------------|--------------------|
|-------------------|--------------------|
|-------------------|--------------------|
|-------------------|--------------------|
|-7-5-7-5---7-----7-|-(7)-5-7-5-----7\---|
|-------------------|--------------------|
|
| Gtr II
|         PM  PM|               PM|
| E E E E E E S S E   +E  E E E S S Q.
|-------------------|--------------------|
|-------------------|--------------------|
|-------------------|--------------------|
|-9-7-9-7---9-----9-|-(9)-7-9-7-----9\---|
|-7-5-7-5---7-----7-|-(7)-5-7-5-----7\---|
|---------0-0-0-0-0-|-(0)-------0-0-0\---|


  E E E E E E E   E    +E   E  E E q  q
|-------------------|----------------------|
|-------------------|----------------------|
|-------------------|----------------------|
|-------------------|--------------7--7----|
|-7-5-7-5---7---/10-|-(10)-10--9---5--5----|
|-------------------|----------------------|
|
| E E E E E E E   E    +E   E  E E q  q
|-------------------|----------------------|
|-------------------|----------------------|
|-------------------|----------------------|
|-9-7-9-7---9---/12-|-(12)-12-11---7--7----|
|-7-5-7-5---7---/10-|-(10)-10--9---5--5----|
|-------------------|----------------------|


  E E E E E E E   E   +E  E E E E   Q.
|-------------------|--------------------|
|-------------------|--------------------|
|-------------------|--------------------|
|-------------------|--------------------|
|-7-5-7-5---7-----7-|-(7)-5-7-5-----7\---|
|-------------------|--------------------|
|
|         PM  PM|               PM|
| E E E E E E S S E   +E  E E E S S Q.
|-------------------|--------------------|
|-------------------|--------------------|
|-------------------|--------------------|
|-9-7-9-7---9-----9-|-(9)-7-9-7-----9\---|
|-7-5-7-5---7-----7-|-(7)-5-7-5-----7\---|
|---------0-0-0-0-0-|-(0)-------0-0-0\---|


  E E E E E E E   E    +E   E  E E q  q
|-------------------|----------------------|
|-------------------|----------------------|
|-------------------|----------------------|
|-------------------|--------------7--7----|
|-7-5-7-5---7---/10-|-(10)-10--9---5--5----|
|-------------------|----------------------|
|
| E E E E E E E   E    +E   E  E E q  q
|-------------------|----------------------|
|-------------------|----------------------|
|-------------------|----------------------|
|-9-7-9-7---9---/12-|-(12)-12-11---7--7----|
|-7-5-7-5---7---/10-|-(10)-10--9---5--5----|
|-------------------|----------------------|


  Gtrs I, II
                                 PM|
  S S E S S E S S E S S E   +Q   S S E +H       S S S S Q   S S S S E E
|-------------------------|-------------------|-------------------------|
|-------------------------|-------------------|-------------------------|
|-----5-----4-----7-----5-|-(5)------4-(4)----|-------------------------|
|-------------------------|-------------------|---------9\----------9-7-|
|-0-0---0-0---0-0---0-0---|------2-2----------|---------7\----------7-5-|
|-------------------------|-------------------|-0-0-0-0-----0-0-0-0-----|


                                                               PM|
  S S S S Q   S S S S S S +E    S S E S S E S S E S S E   +Q   S S E +H
|-----------------------------|-------------------------|------------------|
|-----------------------------|-------------------------|------------------|
|-----------------------------|-----5-----4-----7-----5-|-(5)------4-(4)---|
|---------9\------5-x-5-7-(7)-|-------------------------|------------------|
|---------7\--5-7-------------|-0-0---0-0---0-0---0-0---|------2-2---------|
|-0-0-0-0---------------------|-------------------------|------------------|


  E S S E S S E S S E S S   E S S E S S E S S E S S
|-------------------------|-------------------------|
|-------------------------|-------------------------|
|-5-----5-----5-----5-----|-7-----7-----7-----7-----|
|-5-----5-----5-----5-----|-7-----7-----7-----7-----|
|-3-3-3-3-3-3-3-3-3-3-3-3-|-5-5-5-5-5-5-5-5-5-5-5-5-|
|-------------------------|-------------------------|


   Chorus
                PM|               PM|
    E E E E E E S S E   +E  E E E S S Q.
||--------------------|--------------------|
||o-------------------|--------------------|
||--------------------|--------------------|
||--9-7-9-7---9-----9-|-(9)-7-9-7-----9\---|
||o-7-5-7-5---7-----7-|-(7)-5-7-5-----7\---|
||--------------0-0---|-----------0-0------|


  E E E E E E E   E    +E   E  E E q  q
|-------------------|---------------------|
|-------------------|---------------------|
|-------------------|---------------------|
|-9-7-9-7---9---/12-|-(12)-12-11---7--7---|
|-7-5-7-5---7---/10-|-(10)-10--9---5--5---|
|-------------------|---------------------|


              PM|               PM|
  E E E E E E S S E   +E  E E E S S Q.
|-------------------|--------------------|
|-------------------|--------------------|
|-------------------|--------------------|
|-9-7-9-7---9-----9-|-(9)-7-9-7-----9\---|
|-7-5-7-5---7-----7-|-(7)-5-7-5-----7\---|
|-------------0-0---|-----------0-0------|


  E E E E E E E   E    +E   E  E E q  q     4x
|-------------------|-----------------------||
|-------------------|----------------------o||
|-------------------|-----------------------||
|-9-7-9-7---9---/12-|-(12)-12-11---7--7-----||
|-7-5-7-5---7---/10-|-(10)-10--9---5--5----o||
|-------------------|-----------------------||


Duration Legend
---------------
W - whole; H - half; Q - quarter; E - 8th; S - 16th; T - 32nd; X - 64th; a - acciaccatura
+ - note tied to previous; . - note dotted; .. - note double dotted
Uncapitalized letters represent notes that are staccato (1/2 duration)
Irregular groupings are notated above the duration line
Duration letters will always appear directly above the note/fret number it represents the
duration for.  Duration letters with no fret number below them represent rests.  Multi-
bar rests are notated in the form Wxn, where n is the number of bars to rest for.  Low
melody durations appear below the staff

Tablature Legend
----------------
 h   - hammer-on
 p   - pull-off
 b   - bend
 pb  - pre-bend
 r   - bend release (if no number after the r, then release immediately)
 /\  - slide into or out of (from/to "nowhere")
 s   - legato slide
 S   - shift slide
  - natural harmonic
[n]  - artificial harmonic
n(n) - tapped harmonic
 ~   - vibrato
 tr  - trill
 T   - tap
 TP  - trem. picking
 PM  - palm muting
\n/  - tremolo bar dip; n = amount to dip
 \n  - tremolo bar down
 n/  - tremolo bar up
/n\  - tremolo bar inverted dip
 =   - hold bend; also acts as connecting device for hammers/pulls
 <>  - volume swell (louder/softer)
 x   - on rhythm slash represents muted slash
 o   - on rhythm slash represents single note slash

Misc Legend
-----------
 |  - bar
||  - double bar
||o - repeat start
o|| - repeat end
*|  - double bar (ending)
 :  - bar (freetime)
 $  - Segno
 &  - Coda
Tempo markers -  = BPM(8/16=s8/s16), where s8 = swing 8ths, s16 = swing 16ths


***************************************************************************************
***************************************************************************************





Comments


Popular Edens Curse tabs & chords
After The Love Is Gone Tabs
Angels And Demons Tabs
Fallen King Tabs
Heaven Touch Me Tabs
Sail On Tabs
Trinity Tabs


Song lyrics



↑ Back to top | Tablatures and chords are parodies/interpretations of the original songs. You may use it for private study, scholarship, research or language learning purposes only
© 2014 AZChords.com Contact us | Privacy policy | DMCA | Add/correct tabs | Request tabs | Top 50 tabs