>
 >
Heaven Touch Me

Heaven Touch Me Guitar Tabs

Edens Curse - Heaven Touch Me chords, tabs, tablatures, lyrics

Guitar lessons | Add/correct | Request | Top 50 tabs Artists:  A B C D E F G H I J K L M N O P Q R S T U V W X Y Z 0-9

Heaven Touch Me Guitar Tabs – Edens Curse

CD, Sheet music, Poster

Do you like Heaven Touch Me? Share with your friends now
Tabs
#------------------------------------------------------------------------------##

                                 HEAVEN TOUCH ME
                           As recorded by Eden's Curse
                       (From the 2007 Album EDEN'S CURSE)


Gtr I (D# G# C# F# A# D#) - 'Guitar 1'
Gtr II (D# G# C# F# A# D#) - 'Guitar 2'
Gtr III (D# G# C# F# A# D#) - 'Lead 1'
Gtr IV (D# G# C# F# A# D#) - 'Lead 2'
Gtr V (D# G# C# F# A# D#) - 'Acoustic'

  Q=100
 4/4
  Gtr I
        PM    PM|       PM    PM   ~~~        PM    PM|
  E E E E E E E E   E E E E E E E  E    E E E E E E E E   Q.   Q  S S Q
|-----------------|-------------------|-----------------|----------------|
|---1-----0-------|-------------------|---1-----0-------|----------------|
|-----2-----0---0-|-2-----4-----4-[5]-|-----2-----0---0-|------7---------|
|-----------------|---3-----5---------|-----------------|-5----7--5-5-5--|
|-0-----0-----0---|-----0-----0-------|-0-----0-----0---|-5----5--5-5-5--|
|-----------------|-------------------|-----------------|-3-------3-3-3--|


    PM|     PM|   PM|             PM|        PM|
  E S S E E S S E S S E   +E  E E S S E E E  S S
|-----------------------|------------------------|
|-5-----6-3-----5-----5-|-(5)-5-6-----8-8-6\-----|
|-2-----2-2-----2-----2-|-(2)-2-2-----5-5-5\-----|
|-----------------------|------------------------|
|---0-0-----0-0---0-0---|---------0-0--------0-0-|
|-----------------------|------------------------|


    PM|     PM|   PM|             PM|       PM
  E S S E E S S E S S E   +E  E E S S E E E E
|-----------------------|---------------------|
|-5-----6-3-----5-----1-|-(1)-1-3-----1-1-0---|
|-2-----2-2-----2-----0-|-(0)-0-0-----0-0-0---|
|-----------------------|---------------------|
|---0-0-----0-0---0-0---|---------3-3-------3-|
|-----------------------|---------------------|


      PM|     PM|    PM|                             PM|            PM|
   E  S S E E S S E  S S  E        +E    E  E        S S  E  E  E   S S
|-------------------------------|---------------------------------------|
|--5------6-3-----5-------5-----|--(5)---5--6-------------8--8--6\------|
|--2------2-2-----2-------2-----|--(2)---2--2-------------5--5--5\------|
|-------------------------------|---------------------------------------|
|-----0-0-----0-0----0-0--------|--------------------0-0------------0-0-|
|-------------------------------|---------------------------------------|
|
| Gtrs III, IV
|                                           |--3--|
|  H.                E    E        +E    E  S  S  S  E    E  E  E   E
|--8----------------10---10b12==|=(10)r-10--8-10--8-------------8--10---|
|-10----------------12---12b13==|=(12)r-12-10-12-10-12---10-12-10--12---|
|-------------------------------|-------------------12---10-12----------|
|-------------------------------|---------------------------------------|
|-------------------------------|---------------------------------------|
|-------------------------------|---------------------------------------|
   H.                E    E        +E    E  S  S  S  E    E  E  E   E
                                            |--3--|


      PM|     PM|    PM|                                   PM|            PM
   E  S S E E S S E  S S  E        +E    E        E        S S  E   E  E  E
|-------------------------------|-------------------------------------------|
|--5------6-3-----5-------1-----|--(1)---1--------3-------------1---1--0----|
|--2------2-2-----2-------0-----|--(0)---0--------0-------------0---0--0----|
|-------------------------------|-------------------------------------------|
|-----0-0-----0-0----0-0--------|--------------------------3-3------------3-|
|-------------------------------|-------------------------------------------|
|
|                                        |--3--|  |--3--|
|  H.                E    E        +E    S  S  S  S  S  S  E    E   E  E  E
|--8----------------10---13b15==|=(13)r-13-15-13-12-13-12-10---12-/17-15-13-|
|-10----------------12---13b15==|=(13)r-13-15-13-12-13-12-10---12-/17-15-13-|
|-------------------------------|-------------------------------------------|
|-------------------------------|-------------------------------------------|
|-------------------------------|-------------------------------------------|
|-------------------------------|-------------------------------------------|
   H.                E    E        +E    S  S  S  S  S  S  E    E   E  E  E
                                         |--3--|  |--3--|


   W                    +W            +W           H    E E Q
|--------------------|-------------|-------------|---------------|
|--------------------|-------------|-------------|---------------|
|--2-----------------|--(2)--------|--(2)--------|---------------|
|--2-----------------|--(2)--------|--(2)--------|---------------|
|--0-----------------|--(0)--------|--(0)--------|---------------|
|--------------------|-------------|-------------|--------x-5\---|
|
|  S  S  E  +H.         +W            +W           W
|-12-13-12-(12)------|-(12)--------|-(12)--------|---------------|
|-10-12-10-(10)------|-(10)--------|-(10)--------|---------------|
|--------------------|-------------|-------------|---------------|
|--------------------|-------------|-------------|---------------|
|--------------------|-------------|-------------|---------------|
|--------------------|-------------|-------------|---------------|
   S  S  E  +H.         +W                         W


   Verse
   4/4
    Gtrs I, II
          PM    PM|       PM    PM   ~~~        PM    PM|
    E E E E E E E E   E E E E E E E  E    E E E E E E E E   Q.   Q  S S Q
||------------------|-------------------|-----------------|-----------------|
||o---1-----0-------|-------------------|---1-----0-------|-----------------|
||------2-----0---0-|-2-----4-----4-[5]-|-----2-----0---0-|------7----------|
||------------------|---3-----5---------|-----------------|-5----7--5-5-5---|
||o-0-----0-----0---|-----0-----0-------|-0-----0-----0---|-5----5--5-5-5---|
||------------------|-------------------|-----------------|-3-------3-3-3---|


 4/4
        PM    PM|       PM    PM   ~~~        PM    PM|
  E E E E E E E E   E E E E E E E  E    E E E E E E E E   Q.   Q  S S Q
|-----------------|-------------------|-----------------|----------------|
|---1-----0-------|-------------------|---1-----0-------|----------------|
|-----2-----0---0-|-2-----4-----4-[5]-|-----2-----0---0-|------7---------|
|-----------------|---3-----5---------|-----------------|-5----7--5-5-5--|
|-0-----0-----0---|-----0-----0-------|-0-----0-----0---|-5----5--5-5-5--|
|-----------------|-------------------|-----------------|-3-------3-3-3--|


  Gtr I
  PM|     PM  PM|     PM  PM|       PM|     PM  PM|     PM    PM
  S S S S S S S S S S S S S S S S   S S S S S S S S S S S S S S  E
|---------------------------------|---------------------------------|
|---------------------------------|---------------------------------|
|-----------------------5---------|---------------------------------|
|-----5h7---7-----5h7---------5h7-|-----5h7---7-----5h7---7p5---[7]-|
|-0-0-----0---0-0-----0---0-0-----|-0-0-----0---0-0-----0-----0-----|
|---------------------------------|---------------------------------|
|
| Gtr II
| PM|     PM  PM|     PM  PM|       PM|     PM  PM|     PM    PM
| S S S S S S S S S S S S S S S S   S S S S S S S S S S S S S S  E
|---------------------------------|---------------------------------|
|-----------------------5---------|---------------------------------|
|-----4h5---5-----4h5---------4h5-|-----4h5---5-----4h5---5p4----5--|
|---------------------------------|---------------------------------|
|-0-0-----0---0-0-----0---0-0-----|-0-0-----0---0-0-----0-----0-----|
|---------------------------------|---------------------------------|


  PM|     PM  PM|     PM  PM|       PM|     PM  PM|     PM    PM
  S S S S S S S S S S S S S S S S   S S S S S S S S S S S S S S E
|---------------------------------|-------------------------------|
|---------------------------------|-------------------------------|
|-----------------------5---------|-------------------------------|
|-----5h7---7-----5h7---------5h7-|-----5h7---7-----5h7---7p5---7-|
|-0-0-----0---0-0-----0---0-0-----|-0-0-----0---0-0-----0-----0---|
|---------------------------------|-------------------------------|
|
| PM|     PM  PM|     PM  PM|       PM|     PM  PM|     PM    PM
| S S S S S S S S S S S S S S S S   S S S S S S S S S S S S S S E
|---------------------------------|-------------------------------|
|-----------------------5---------|-------------------------------|
|-----4h5---5-----4h5---------4h5-|-----4h5---5-----4h5---5p4---5-|
|---------------------------------|-------------------------------|
|-0-0-----0---0-0-----0---0-0-----|-0-0-----0---0-0-----0-----0---|
|---------------------------------|-------------------------------|


  PM|     PM  PM|     PM  PM|       PM|     PM  PM|     PM    PM
  S S S S S S S S S S S S S S S S   S S S S S S S S S S S S S S  E
|---------------------------------|---------------------------------|
|---------------------------------|---------------------------------|
|-----------------------5---------|---------------------------------|
|-----5h7---7-----5h7---------5h7-|-----5h7---7-----5h7---7p5---[7]-|
|-0-0-----0---0-0-----0---0-0-----|-0-0-----0---0-0-----0-----0-----|
|---------------------------------|---------------------------------|
|
| PM|     PM  PM|     PM  PM|       PM|     PM  PM|     PM    PM
| S S S S S S S S S S S S S S S S   S S S S S S S S S S S S S S  E
|---------------------------------|---------------------------------|
|-----------------------5---------|---------------------------------|
|-----4h5---5-----4h5---------4h5-|-----4h5---5-----4h5---5p4----5--|
|---------------------------------|---------------------------------|
|-0-0-----0---0-0-----0---0-0-----|-0-0-----0---0-0-----0-----0-----|
|---------------------------------|---------------------------------|


  PM|     PM  PM|     PM  PM|       PM|     PM  PM|     PM    PM
  S S S S S S S S S S S S S S S S   S S S S S S S S S S S S S S E
|---------------------------------|-------------------------------|
|---------------------------------|-------------------------------|
|-----------------------5---------|-------------------------------|
|-----5h7---7-----5h7---------5h7-|-----5h7---7-----5h7---7p5---5-|
|-0-0-----0---0-0-----0---0-0-----|-0-0-----0---0-0-----0-----0---|
|---------------------------------|-------------------------------|
|
| PM|     PM  PM|     PM  PM|       PM|     PM  PM|     PM    PM
| S S S S S S S S S S S S S S S S   S S S S S S S S S S S S S S E
|---------------------------------|-------------------------------|
|-----------------------5---------|-------------------------------|
|-----4h5---5-----4h5---------4h5-|-----4h5---5-----4h5---5p4---4-|
|---------------------------------|-------------------------------|
|-0-0-----0---0-0-----0---0-0-----|-0-0-----0---0-0-----0-----0---|
|---------------------------------|-------------------------------|


                                          PM------|
  W          +H     E E E E    W          E E E E E E E E
|----------|-----------------|----------|-----------------|
|-6--------|-(6)----6--------|----------|-----------------|
|-5--------|-(5)------5------|----------|-----------------|
|-7--------|-(7)--------7----|-5--------|-5-5-5-5-5-5-5-5-|
|-5--------|-(5)----------5\-|-5--------|-5-5-5-5-5-5-5-5-|
|----------|-----------------|-3--------|-3-3-3-3-3-3-3-3-|


 Chorus
  Gtrs I, II
    PM|     PM|   PM|             PM|        PM|
  E S S E E S S E S S E   +E  E E S S E E E  S S
|-----------------------|------------------------|
|-5-----6-3-----5-----5-|-(5)-5-6-----8-8-6\-----|
|-2-----2-2-----2-----2-|-(2)-2-2-----5-5-5\-----|
|-----------------------|------------------------|
|---0-0-----0-0---0-0---|---------0-0--------0-0-|
|-----------------------|------------------------|


    PM|     PM|   PM|             PM|       PM
  E S S E E S S E S S E   +E  E E S S E E E E
|-----------------------|---------------------|
|-5-----6-3-----5-----1-|-(1)-1-3-----1-1-0---|
|-2-----2-2-----2-----0-|-(0)-0-0-----0-0-0---|
|-----------------------|---------------------|
|---0-0-----0-0---0-0---|---------3-3-------3-|
|-----------------------|---------------------|


    PM|     PM|   PM|             PM|        PM|
  E S S E E S S E S S E   +E  E E S S E E E  S S
|-----------------------|------------------------|
|-5-----6-3-----5-----5-|-(5)-5-6-----8-8-6\-----|
|-2-----2-2-----2-----2-|-(2)-2-2-----5-5-5\-----|
|-----------------------|------------------------|
|---0-0-----0-0---0-0---|---------0-0--------0-0-|
|-----------------------|------------------------|


    PM|     PM|   PM|             PM|       PM
  E S S E E S S E S S E   +E  E E S S E E E E
|-----------------------|---------------------|
|-5-----6-3-----5-----1-|-(1)-1-3-----1-1-0---|
|-2-----2-2-----2-----0-|-(0)-0-0-----0-0-0---|
|-----------------------|---------------------|
|---0-0-----0-0---0-0---|---------3-3-------3-|
|-----------------------|---------------------|


  1.
  W          +W           +W           H    E E Q
|----------|------------|------------|---------------||
|----------|------------|------------|--------------o||
|-2--------|-(2)--------|-(2)--------|---------------||
|-2--------|-(2)--------|-(2)--------|---------------||
|-0--------|-(0)--------|-(0)--------|--------------o||
|----------|------------|------------|--------x-5\---||


 Interlude
  2.
  Gtrs I, II
   W                  E  E E E  E    S    S  E    E
|-----------------|------------------------------------|
|--6--------------|---6---------5----6----5------------|
|--5--------------|------5-------------------5----0----|
|--7--------------|--------7---------------------------|
|--5--------------|----------5-------------------------|
|-----------------|------------------------------------|
|
| Gtr III
|                               |---3---|    |---3---|
|  H.        E  E    +H         E  E    E    E  E    E
|-----------------|------------------------------------|
|-10-------/12----|------------------------------------|
|--------------12-|-(12)-------12-14-------------------|
|-----------------|--------------------12---14-12---10-|
|-----------------|------------------------------------|
|-----------------|------------------------------------|


    W                              +W
|--------------------------------|-------------------------------------------|
|--------------------------------|-------------------------------------------|
|--------------------------------|-------------------------------------------|
|---5----------------------------|-(5)---------------------------------------|
|---5----------------------------|-(5)---------------------------------------|
|---3----------------------------|-(3)---------------------------------------|
|
|                        ~~~
|                                                           |-3--|  |--3--|
|   E       +E   +E   E  Q.    E    S   S S  S  S  S  S  S  E  E E  E  E  E
|--------------------------------|-------------------------------------------|
|--------------------------------|------------------------------------10-13--|
|--------------------------------|-------------------------------9-12--------|
|-[12]b14==(12)r(12)-10-12----10-|--9--10-9----------------10-12-------------|
|--------------------------------|----------10-12----10-12-------------------|
|--------------------------------|----------------12-------------------------|


   W                              E      E     E     E       E S S   E  E
|------------------------------|----------------------------------------------|
|--6---------------------------|--6--------------------------5-6-5------------|
|--5---------------------------|---------5---------------------------5--0-----|
|--7---------------------------|---------------7------------------------------|
|--5---------------------------|---------------------5------------------------|
|------------------------------|----------------------------------------------|
|
|                |-----6-----|    |----6-----| |----6-----|
|  Q    E Q.     S  S S  S S S    S S S  S S S S S S S  S S  Q      +E.     S
|-10--/12-8----/12-10-8------8-|------8-----------------------------------/13-|
|-----------------------10-8---|-10-8---10-8-----8----------------------------|
|------------------------------|-------------9-7---9-7------------------------|
|------------------------------|-----------------------10-7-------------------|
|------------------------------|----------------------------10-----(10)-------|
|------------------------------|----------------------------------------------|


    W
|-------------------------------------------------------------------------------|
|-------------------------------------------------------------------------------|
|-------------------------------------------------------------------------------|
|---5---------------------------------------------------------------------------|
|---5---------------------------------------------------------------------------|
|---3---------------------------------------------------------------------------|
|
|                                                |-----6-----| |-----6-----|
|  +T   T  T  T  T  T  T  T T  T T  T  T T  T  T S  S S S  S S S  S S S  S S
|-(13)-12-10---------------------8-------8--------------------------------------|
|------------13-12-10-12-10-8-10---10-12---12-10-8------8-----------------------|
|--------------------------------------------------10-9---10-9-7-10-9-7---------|
|-----------------------------------------------------------------------10-9----|
|-------------------------------------------------------------------------------|
|-------------------------------------------------------------------------------|


  Gtrs I, II
  +W
|------------------------------------------------------------------------------|
|------------------------------------------------------------------------------|
|------------------------------------------------------------------------------|
|-(5)--------------------------------------------------------------------------|
|-(5)--------------------------------------------------------------------------|
|-(3)--------------------------------------------------------------------------|
|
| Gtr III
|  |-----6------| |------6-------|
|  S  S S  S S  S S  S  S  S  S  S  T  T  T  T  T  T  T  T  T  T T  T  T T T T
|-----------------8------------------------------------------------------------|
|------------9-10---10-12-13-12-10----10-13-10-12-13-12-10---------------------|
|-----7-9-10-----------------------12----------------------12-10-9-12-10-9-7-9-|
|-10---------------------------------------------------------------------------|
|------------------------------------------------------------------------------|
|------------------------------------------------------------------------------|
|
| Gtr V
|  W
|------------------------------------------------------------------------------|
|------------------------------------------------------------------------------|
|------------------------------------------------------------------------------|
|------------------------------------------------------------------------------|
|------------------------------------------------------------------------------|
|------------------------------------------------------------------------------|


      W                 +W                     +W                      W
|--------------------|----------------------|----------------------|------------------------------|
|--------------------|----------------------|----------------------|------------------------------|
|-----2--------------|--(2)-----------------|--(2)-----------------|------------------------------|
|-----2--------------|--(2)-----------------|--(2)-----------------|------------------------------|
|-----0--------------|--(0)-----------------|--(0)-----------------|------------------------------|
|--------------------|----------------------|----------------------|------------------------------|
|
|  a  W                 +W                     +W                     +H.            +E   +E
|--------------------|----------------------|----------------------|------------------------------|
|--------------------|----------------------|----------------------|------------------------------|
|-10s14--------------|-(14)-----------------|-(14)-----------------|-(14)-----------(14)-(14)\----|
|--------------------|----------------------|----------------------|------------------------------|
|--------------------|----------------------|----------------------|------------------------------|
|--------------------|----------------------|----------------------|------------------------------|
|
|     E E E E E E Q      E  E E +E  E E E E     E  E E E E E E S S     E  E E E E E   E    E
|-----------0--------|----------------0-----|----------0-----------|------------------------------|
|-------------0------|--------0-(0)-----0---|------------0---------|----------0-------------------|
|---------------2----|--------------------2-|--------------2-------|--------0---0----------0------|
|---------2-------2--|------2-------2-------|--------2-------2-----|------2-------0---------------|
|-------0------------|---0------------------|------0-----------0-2-|---3--------------------------|
|--------------------|----------------------|----------------------|------------------3-----------|


  Gtr V
  E E E E E E Q    E E E +E  E E E E   E E E E E E E S S   E E E E E E E E
|-------0--------|-------------0-----|-------0-----------|------------------|
|---------0------|-----0-(0)-----0---|---------0---------|-------0----------|
|-----------2----|-----------------2-|-----------2-------|-----0---0-----0--|
|-----2-------2--|---2-------2-------|-----2-------2-----|---2-------0------|
|---0------------|-0-----------------|---0-----------0-2-|-3----------------|
|----------------|-------------------|-------------------|-------------3----|


 Solo
  Gtrs I, II
    PM|   PM|   PM----|    PM-|    ~~~      PM|   PM|   PM----|           ~
  E E E E E E E E   E E E  E  E E  E  E   E E E E E E E S S   E E E E E E Q
|-----------------|---------------------|-------------------|------------------|
|-----------------|---------------------|-------------------|------------------|
|-2-----2-----2---|---------------------|-2-----2-----2-----|-----0------------|
|-2-----2-----2---|-----3-------5-------|-2-----2-----2-----|---2---0----------|
|-0-0-0-0-0-0-0---|---3-------5---[5]---|-0-0-0-0-0-0-0-0-2-|-3-------3-2------|
|---------------0-|-1------3----------3-|-------------------|-------------3----|
|
| Gtr V
| E E E E E E Q     E E E +E  E E  E  E   E E E E E E E S S   E E E E E E E E
|-------0---------|-------------0-------|-------0-----------|------------------|
|---------0-------|-----0-(0)------0----|---------0---------|-------0----------|
|-----------2-----|-------------------2-|-----------2-------|-----0---0-----0--|
|-----2-------2---|---2-------2---------|-----2-------2-----|---2-------0------|
|---0-------------|-0-------------------|---0-----------0-2-|-3----------------|
|-----------------|---------------------|-------------------|-------------3----|


    PM|   PM|   PM----|    PM-|    ~~~      PM|   PM|   PM----|           ~
  E E E E E E E E   E E E  E  E E  E  E   E E E E E E E S S   E E E E E E Q
|-----------------|---------------------|-------------------|------------------|
|-----------------|---------------------|-------------------|------------------|
|-2-----2-----2---|---------------------|-2-----2-----2-----|-----0------------|
|-2-----2-----2---|-----3-------5-------|-2-----2-----2-----|---2---0----------|
|-0-0-0-0-0-0-0---|---3-------5---[5]---|-0-0-0-0-0-0-0-0-2-|-3-------3-2------|
|---------------0-|-1------3----------3-|-------------------|-------------3----|
|
| E E E E E E Q     E E E +E  E E  E  E   E E E E E E E S S   E E E E E E E E
|-------0---------|-------------0-------|-------0-----------|------------------|
|---------0-------|-----0-(0)------0----|---------0---------|-------0----------|
|-----------2-----|-------------------2-|-----------2-------|-----0---0-----0--|
|-----2-------2---|---2-------2---------|-----2-------2-----|---2-------0------|
|---0-------------|-0-------------------|---0-----------0-2-|-3----------------|
|-----------------|---------------------|-------------------|-------------3----|


    PM|   PM|   PM----|    PM-|    ~~~      PM|   PM|   PM----|           ~
  E E E E E E E E   E E E  E  E E  E  E   E E E E E E E S S   E E E E E E Q
|-----------------|---------------------|-------------------|------------------|
|-----------------|---------------------|-------------------|------------------|
|-2-----2-----2---|---------------------|-2-----2-----2-----|-----0------------|
|-2-----2-----2---|-----3-------5-------|-2-----2-----2-----|---2---0----------|
|-0-0-0-0-0-0-0---|---3-------5---[5]---|-0-0-0-0-0-0-0-0-2-|-3-------3-2------|
|---------------0-|-1------3----------3-|-------------------|-------------3----|
|
| E E E E E E Q     E E E +E  E E  E  E   E E E E E E E S S   E E E E E E E E
|-------0---------|-------------0-------|-------0-----------|------------------|
|---------0-------|-----0-(0)------0----|---------0---------|-------0----------|
|-----------2-----|-------------------2-|-----------2-------|-----0---0-----0--|
|-----2-------2---|---2-------2---------|-----2-------2-----|---2-------0------|
|---0-------------|-0-------------------|---0-----------0-2-|-3----------------|
|-----------------|---------------------|-------------------|-------------3----|


    PM|   PM|   PM----|    PM-|    ~~~      PM|   PM|   PM----|           ~
  E E E E E E E E   E E E  E  E E  E  E   E E E E E E E S S   E E E E E E Q
|-----------------|---------------------|-------------------|------------------|
|-----------------|---------------------|-------------------|------------------|
|-2-----2-----2---|---------------------|-2-----2-----2-----|-----0------------|
|-2-----2-----2---|-----3-------5-------|-2-----2-----2-----|---2---0----------|
|-0-0-0-0-0-0-0---|---3-------5---[5]---|-0-0-0-0-0-0-0-0-2-|-3-------3-2------|
|---------------0-|-1------3----------3-|-------------------|-------------3----|
|
| E E E E E E Q     E E E +E  E E  E  E   E E E E E E E S S   E E E E E E E E
|-------0---------|-------------0-------|-------0-----------|------------------|
|---------0-------|-----0-(0)------0----|---------0---------|-------0----------|
|-----------2-----|-------------------2-|-----------2-------|-----0---0-----0--|
|-----2-------2---|---2-------2---------|-----2-------2-----|---2-------0------|
|---0-------------|-0-------------------|---0-----------0-2-|-3----------------|
|-----------------|---------------------|-------------------|-------------3----|


  Gtrs I, II
  E E E E +E  E E E   +E  E E E E E E E
|-------------------|-------------------|
|-------------------|-------------------|
|-------------------|-------0-----0---0-|
|-7-5-7-8-(8)-7-5---|-----0-----0-------|
|-5-5-5-5-(5)-5-5-3-|-(3)-----1-----0---|
|-------------------|-------------------|


                              PM|
  E E E E +E  E E E   +E  E E S S E E Q
|-------------------|-------------6-6-5\---|
|-----------------6-|-(6)-6-5-----6-6-6\---|
|-----------------5-|-(5)-5-5--------------|
|-7-5-7-8-(8)-7-5-3-|-(3)-3-3-3-3----------|
|-5-5-5-5-(5)-5-5---|----------------------|
|-------------------|----------------------|


  E E E E +E  E E E   +E  E E E E E E E
|-------------------|-------------------|
|-------------------|-------------------|
|-------------------|-------0-----0---0-|
|-7-5-7-8-(8)-7-5---|-----0-----0-------|
|-5-5-5-5-(5)-5-5-3-|-(3)-----1-----0---|
|-------------------|-------------------|


                              PM|
  E E E E +E  E E E   +E  E E S S E E Q
|-------------------|-------------6-6-5\---|
|-----------------6-|-(6)-6-5-----6-6-6\---|
|-----------------5-|-(5)-5-5--------------|
|-7-5-7-8-(8)-7-5-3-|-(3)-3-3-3-3----------|
|-5-5-5-5-(5)-5-5---|----------------------|
|-------------------|----------------------|


 Chorus
    PM|     PM|   PM|             PM|        PM|
  E S S E E S S E S S E   +E  E E S S E E E  S S
|-----------------------|------------------------|
|-5-----6-3-----5-----5-|-(5)-5-6-----8-8-6\-----|
|-2-----2-2-----2-----2-|-(2)-2-2-----5-5-5\-----|
|-----------------------|------------------------|
|---0-0-----0-0---0-0---|---------0-0--------0-0-|
|-----------------------|------------------------|


    PM|     PM|   PM|             PM|       PM
  E S S E E S S E S S E   +E  E E S S E E E E
|-----------------------|---------------------|
|-5-----6-3-----5-----1-|-(1)-1-3-----1-1-0---|
|-2-----2-2-----2-----0-|-(0)-0-0-----0-0-0---|
|-----------------------|---------------------|
|---0-0-----0-0---0-0---|---------3-3-------3-|
|-----------------------|---------------------|


    PM|     PM|   PM|             PM|        PM|
  E S S E E S S E S S E   +E  E E S S E E E  S S
|-----------------------|------------------------|
|-5-----6-3-----5-----5-|-(5)-5-6-----8-8-6\-----|
|-2-----2-2-----2-----2-|-(2)-2-2-----5-5-5\-----|
|-----------------------|------------------------|
|---0-0-----0-0---0-0---|---------0-0--------0-0-|
|-----------------------|------------------------|


    PM|     PM|   PM|             PM|       PM
  E S S E E S S E S S E   +E  E E S S E E E E
|-----------------------|---------------------|
|-5-----6-3-----5-----1-|-(1)-1-3-----1-1-0---|
|-2-----2-2-----2-----0-|-(0)-0-0-----0-0-0---|
|-----------------------|---------------------|
|---0-0-----0-0---0-0---|---------3-3-------3-|
|-----------------------|---------------------|


    PM|     PM|   PM|             PM|        PM|
  E S S E E S S E S S E   +E  E E S S E E E  S S
|-----------------------|------------------------|
|-5-----6-3-----5-----5-|-(5)-5-6-----8-8-6\-----|
|-2-----2-2-----2-----2-|-(2)-2-2-----5-5-5\-----|
|-----------------------|------------------------|
|---0-0-----0-0---0-0---|---------0-0--------0-0-|
|-----------------------|------------------------|


    PM|     PM|   PM|             PM|       PM
  E S S E E S S E S S E   +E  E E S S E E E E
|-----------------------|---------------------|
|-5-----6-3-----5-----1-|-(1)-1-3-----1-1-0---|
|-2-----2-2-----2-----0-|-(0)-0-0-----0-0-0---|
|-----------------------|---------------------|
|---0-0-----0-0---0-0---|---------3-3-------3-|
|-----------------------|---------------------|


    PM|     PM|   PM|             PM|        PM|
  E S S E E S S E S S E   +E  E E S S E E E  S S
|-----------------------|------------------------|
|-5-----6-3-----5-----5-|-(5)-5-6-----8-8-6\-----|
|-2-----2-2-----2-----2-|-(2)-2-2-----5-5-5\-----|
|-----------------------|------------------------|
|---0-0-----0-0---0-0---|---------0-0--------0-0-|
|-----------------------|------------------------|


    PM|     PM|   PM|             PM|       PM
  E S S E E S S E S S E   +E  E E S S E E E E
|-----------------------|---------------------|
|-5-----6-3-----5-----1-|-(1)-1-3-----1-1-0---|
|-2-----2-2-----2-----0-|-(0)-0-0-----0-0-0---|
|-----------------------|---------------------|
|---0-0-----0-0---0-0---|---------3-3-------3-|
|-----------------------|---------------------|


  W
|------*|
|------*|
|-2----*|
|-2----*|
|-0----*|
|------*|


Duration Legend
---------------
W - whole; H - half; Q - quarter; E - 8th; S - 16th; T - 32nd; X - 64th; a - acciaccatura
+ - note tied to previous; . - note dotted; .. - note double dotted
Uncapitalized letters represent notes that are staccato (1/2 duration)
Irregular groupings are notated above the duration line
Duration letters will always appear directly above the note/fret number it represents the
duration for.  Duration letters with no fret number below them represent rests.  Multi-
bar rests are notated in the form Wxn, where n is the number of bars to rest for.  Low
melody durations appear below the staff

Tablature Legend
----------------
 h   - hammer-on
 p   - pull-off
 b   - bend
 pb  - pre-bend
 r   - bend release (if no number after the r, then release immediately)
 /\  - slide into or out of (from/to "nowhere")
 s   - legato slide
 S   - shift slide
  - natural harmonic
[n]  - artificial harmonic
n(n) - tapped harmonic
 ~   - vibrato
 tr  - trill
 T   - tap
 TP  - trem. picking
 PM  - palm muting
\n/  - tremolo bar dip; n = amount to dip
 \n  - tremolo bar down
 n/  - tremolo bar up
/n\  - tremolo bar inverted dip
 =   - hold bend; also acts as connecting device for hammers/pulls
 <>  - volume swell (louder/softer)
 x   - on rhythm slash represents muted slash
 o   - on rhythm slash represents single note slash

Misc Legend
-----------
 |  - bar
||  - double bar
||o - repeat start
o|| - repeat end
*|  - double bar (ending)
 :  - bar (freetime)
 $  - Segno
 &  - Coda
Tempo markers -  = BPM(8/16=s8/s16), where s8 = swing 8ths, s16 = swing 16ths


***************************************************************************************
***************************************************************************************





Comments


Popular Edens Curse tabs & chords
After The Love Is Gone Tabs
Angels And Demons Tabs
Fallen King Tabs
Just Like Judas Tabs
Sail On Tabs
Trinity Tabs


Song lyrics



↑ Back to top | Tablatures and chords are parodies/interpretations of the original songs. You may use it for private study, scholarship, research or language learning purposes only
© 2014 AZChords.com Contact us | Privacy policy | DMCA | Add/correct tabs | Request tabs | Top 50 tabs