>
 >
Fallen King

Fallen King Guitar Tabs

Edens Curse - Fallen King chords, tabs, tablatures, lyrics

Guitar lessons | Add/correct | Request | Top 50 tabs Artists:  A B C D E F G H I J K L M N O P Q R S T U V W X Y Z 0-9

Fallen King Guitar Tabs – Edens Curse

CD, Sheet music, Poster

Do you like Fallen King? Share with your friends now
Tabs
-------------------------------------------------------------------------------
                             FALLEN KING - Eden's Curse
-------------------------------------------------------------------------------


Tuning:
Gtr I (C# G# C# F# A# D#) - 'Clean'
Gtr II (C# G# C# F# A# D#) - 'Rhythm'
Gtr III (C# G# C# F# A# D#) - 'Lead'

   Intro
   4/4
    Gtr I
    E E E Q  Q.     +H     +Q.   E   E E E Q  Q  E   E E E Q  Q  E  4x
||--------0-------|----------------|-------0-------|-------0--------||
||o-----3----3----|-(3)----(3)-----|----------3----|----------3----o||
||----2-----------|----------------|-----0-------0-|-----0-------0--||
||--0-------------|----------------|---0-----------|---2------------||
||o---------------|--------------0-|-1-------------|-3-------------o||
||----------------|----------------|---------------|----------------||


   4/4
    Gtr I
    E E E Q  E  Q    +H     +Q.   E   E E E Q  Q  E   E E E Q  Q  E
||--------0----^5--|-(5)----(5)-----|-------0-------|-------0--------||
||o-----3----3-^3--|-(3)----(3)-----|----------3----|----------3----o||
||----2--------^2--|-(2)----(2)-----|-----0-------0-|-----0-------0--||
||--0----------^0--|-(0)----(0)-----|---0-----------|---2------------||
||o----------------|--------------0-|-1-------------|-3-------------o||
||-----------------|----------------|---------------|----------------||


   Pre-Verse
    $
    Gtr II
        PM      PM|     PM  PM|         PM
    E E E  E  E E E E   E E E E  E  E E E
||--------------------|-------------------|
||o-9-9---10-10-----7-|---9-----10-10-9---|
||--9-9----9--9-----7-|---9------9--9-9---|
||--0-0----0--0-----0-|---0------0--0-0---|
||o-------------------|-------------------|
||------0-------0-0---|-0---0-0---------0-|


      PM      PM|     PM  PM|   PM
  E E E  E  E E E E   E E E E E E Q
|-------------------|---------7---7\---||
|-9-9---10-10-----7-|---9-----9---9\--o||
|-9-9----9--9-----7-|---9-----9---9\---||
|-0-0----0--0-----0-|---0--------------||
|-------------------|-----------------o||
|-----0-------0-0---|-0---0-0---0------||


   Verse
    Gtr II
        PM      PM|     PM  PM|         PM
    E E E  E  E E E E   E E E E  E  E E E
||--------------------|-------------------|
||o-9-9---10-10-----7-|---9-----10-10-9---|
||--9-9----9--9-----7-|---9------9--9-9---|
||--0-0----0--0-----0-|---0------0--0-0---|
||o-------------------|-------------------|
||------0-------0-0---|-0---0-0---------0-|


                           To Coda
      PM      PM|     PM  PM|   PM
  E E E  E  E E E E   E E E E E E Q
|-------------------|---------7---7\---||
|-9-9---10-10-----7-|---9-----9---9\--o||
|-9-9----9--9-----7-|---9-----9---9\---||
|-0-0----0--0-----0-|---0--------------||
|-------------------|-----------------o||
|-----0-------0-0---|-0---0-0---0------||


 Pre-Chorus
        PM|   PM        PM  PM|                 PM|   PM        PM
  E E E E E E E E   +E  E E S S S S Q  E   Q  E E E E E E   +E  E E Q  E Q
|-----------------|----------------------|----------------|-------------------|
|-----------------|----------------------|----------------|-------6-6--5-6\---|
|-----3-----3---3-|-(3)---3---------3----|----5-----5---5-|-(5)---5-5--5-5\---|
|-3-3-3-----3---3-|-(3)-3-3---------3----|-5--5-----5---5-|-(5)---5-5--5-5\---|
|-1-1---1-1---1---|-----1---1-1-3s5----5-|-3----3-3---3---|-----3-------------|
|-----------------|----------------------|----------------|-------------------|


   Chorus
       PM  PM  PM            PM             PM  PM  PM
    Q  E E E E E E   +E  E E E E E E E   Q  E E E E E E   +E  E E E E E Q
||-----------------|-------------------|--------------1-|-(1)---1s3---------|
||o----------------|-------------------|--------------1-|-(1)---1s3-6---5\--|
||--2----3---0---2-|-(2)-2-3---0-0-2---|-2----3---0---3-|-(3)---3s5-5---5\--|
||--0----0---0---0-|-(0)-0-0---0-0-0---|-0----0---0-----|-------------0-----|
||o--------------1-|-(1)-----1---------|----------------|-----1-------------|
||-----0---0---0---|-----------------5-|----5---5---5---|-------------------|


                                                             D.S. al Coda
     PM  PM  PM            PM             PM  PM  PM
  Q  E E E E E E   +E  E E E E E E E   Q  E E E E E E   +E  E E E E E Q
|----------------|-------------------|--------------1-|-(1)---1s3-----------||
|----------------|-------------------|--------------1-|-(1)---1s3-6---5\---o||
|-2----3---0---2-|-(2)-2-3---0-0-2---|-2----3---0---3-|-(3)---3s5-5---5\----||
|-0----0---0---0-|-(0)-0-0---0-0-0---|-0----0---0-----|-----3-------0-------||
|--------------1-|-(1)-----1---------|----------------|--------------------o||
|----0---0---0---|-----------------5-|----5---5---5---|---------------------||


 Pre-Chorus
  &
        PM|   PM        PM  PM|                 PM|     PM        PM
  E E E E E E E E   +E  E E S S S S Q  E   Q  E E S S E E E   +E  E E Q  E Q
|-----------------|----------------------|------------------|------------------|
|-----------------|----------------------|------------------|-------6-6--5-6\--|
|-----3-----3---3-|-(3)---3---------3----|----5-------5---5-|-(5)---5-5--5-5\--|
|-3-3-3-----3---3-|-(3)-3-3---------3----|-5--5-------5---5-|-(5)---5-5--5-5\--|
|-1-1---1-1---1---|-----1---1-1-3s5----5-|-3----3-3s5---5---|-----5------------|
|-----------------|----------------------|------------------|------------------|


   Chorus
    $$
       PM  PM  PM            PM             PM  PM  PM
    Q  E E E E E E   +E  E E E E E E E   Q  E E E E E E   +E  E E E E E Q
||-----------------|-------------------|--------------1-|-(1)---1s3---------|
||o----------------|-------------------|--------------1-|-(1)---1s3-6---5\--|
||--2----3---0---2-|-(2)-2-3---0-0-2---|-2----3---0---3-|-(3)---3s5-5---5\--|
||--0----0---0---0-|-(0)-0-0---0-0-0---|-0----0---0-----|-------------0-----|
||o--------------1-|-(1)-----1---------|----------------|-----1-------------|
||-----0---0---0---|-----------------5-|----5---5---5---|-------------------|


                                                             To Dbl. Coda
     PM  PM  PM            PM             PM  PM  PM
  Q  E E E E E E   +E  E E E E E E E   Q  E E E E E E   +E  E E E E E Q
|----------------|-------------------|--------------1-|-(1)---1s3-----------||
|----------------|-------------------|--------------1-|-(1)---1s3-6---5\---o||
|-2----3---0---2-|-(2)-2-3---0-0-2---|-2----3---0---3-|-(3)---3s5-5---5\----||
|-0----0---0---0-|-(0)-0-0---0-0-0---|-0----0---0-----|-----3-------0-------||
|--------------1-|-(1)-----1---------|----------------|--------------------o||
|----0---0---0---|-----------------5-|----5---5---5---|---------------------||


 Guitar Solo
          PM         PM     PM
   Q      E     E    E  E   E        E
|-----------------------------------------|
|-----------------------------------------|
|--2------------3-------0------------2----|
|--0------------0-------0------------0----|
|------------------------------------1----|
|---------0----------0------0-------------|
|
| Gtr III
|               ~~~~~
|                           |--3--|  |3-|
|  Q      E     Q       E   E     S  S  E
|-----------------------------------------|
|-15-----15----15------15\-15b18-15p13----|
|-17b19--17b19-17b19---17\-------------14-|
|-----------------------------------------|
|-----------------------------------------|
|-----------------------------------------|


                               PM
  +E         E        E        E     E E   E     E
|-----------------------------------------------------|
|-----------------------------------------------------|
|-(2)--------2--------3--------------0-0---2----------|
|-(0)--------0--------0--------------0-0---0----------|
|-(1)--------------------------1----------------------|
|------------------------------------------------5----|
|
|                                    ~~
|  |-------6-------|  |-----6-----|
|  S   S  S  S  S  S  S  S  S  S  E  Q     S  S  S  S
|-----------------------------------------------------|
|-----13----------------------------------------------|
|-12-----14p12-------12----------------------------10-|
|--------------15-12----15p12----------------10-12----|
|-----------------------------15-12p10---/12----------|
|-----------------------------------------------------|


          PM        PM        PM
   Q      E      E  E   E     E     E
|-----------------------------------1----|
|-----------------------------------1----|
|--2-------------3------0-----------3----|
|--0-------------0------0----------------|
|----------------------------------------|
|---------5---------5---------5----------|
|
|                ~~~~~~~~~~~
|  Q      S  S   Q     +E     S  S  S  S
|----------------------------------------|
|----------------------------------------|
|-12b14--10-12-[10]---(10)\-----10-12-10-|
|---------------------------/12----------|
|----------------------------------------|
|----------------------------------------|


  +E      E      E    E      E  E     Q
|-(1)------------1s===3------------------------|
|-(1)------------1s===3------6--------5\-------|
|-(3)------------3s===5------5--------5\-------|
|-------------------------------0--------------|
|---------1------------------------------------|
|----------------------------------------------|
|
|                            ~~~~
|                                     |--3---|
|  E     +S   S  S S  E     +Q     a  E   E  E
|----------------------------------------------|
|----------------------------------------13-15-|
|-12b13r(12)p10-12---12b14-(12)---12s14--------|
|----------------------------------------------|
|----------------------------------------------|
|----------------------------------------------|


            PM           PM      PM
   Q        E     E      E E     E    E
|------------------------------------------|
|------------------------------------------|
|--2--------------3--------0----------2----|
|--0--------------0--------0----------0----|
|-------------------------------------1----|
|-----------0------------0-------0---------|
|
|                        ~~
|                 |-3-|          |---3---|
|  Q       +E    +E   S  Q    a  E  E    E
|------------------------------------------|
|-15b17===(15)r-(15)p13-15---------13---15-|
|----------------------------12s14---------|
|------------------------------------------|
|------------------------------------------|
|------------------------------------------|


                       PM
  +E     E       E     E      E E     E    E
|-----------------------------------------------|
|-----------------------------------------------|
|-(2)----2-------3------------0-0-----2---------|
|-(0)----0-------0------------0-0-----0---------|
|-(1)------------------1------------------------|
|------------------------------------------5----|
|
|                             ~~
|                      |-3-|          |---3---|
|  E     E      +E    +E   S  Q    a  E  E    E
|-----------------------------------------------|
|-15b18-15b18==(15)r-(15)p13-15---------13---15-|
|---------------------------------12s14---------|
|-----------------------------------------------|
|-----------------------------------------------|
|-----------------------------------------------|


                PM               PM              PM
   Q            E     E          E       E       E       E
|--------------------------------------------------------1----|
|--------------------------------------------------------1----|
|--2------------------3------------------0---------------3----|
|--0------------------0------------------0--------------------|
|-------------------------------------------------------------|
|---------------5----------------5---------------5------------|
|
|  |--3--|      |---3----|       |-----3-----|   |----3-----|
|  E  E  E     +E   E    E      +E   +E     +E   E     E    E
|-13-15-15b17r(15)p13---15b17==(15)-(15)r==(15)-18b20-18---17-|
|-------------------------------------------------------------|
|-------------------------------------------------------------|
|-------------------------------------------------------------|
|-------------------------------------------------------------|
|-------------------------------------------------------------|


  +E     E     E    E     E    E      Q
|-(1)----------1s===3---------------------|
|-(1)----------1s===3-----6-----------5\--|
|-(3)----------3s===5-----5-----------5\--|
|--------3---------------------0----------|
|-----------------------------------------|
|-----------------------------------------|
|
|                                     ~~~~
|  |---3----|  |---3---|  |---3---|
|  E   E    E  E  E    E  E  E    E  +Q
|-16--15---13-15-15---13-17p13------------|
|--------------------------------15-(15)--|
|-----------------------------------------|
|-----------------------------------------|
|-----------------------------------------|
|-----------------------------------------|


                     PM                PM                PM
   Q                 E        E        E        E        E        E
|-------------------------------------------------------------------------|
|-------------------------------------------------------------------------|
|--2--------------------------3-----------------0-----------------2-------|
|--0--------------------------0-----------------0-----------------0-------|
|-----------------------------------------------------------------1-------|
|--------------------0-----------------0-----------------0----------------|
|
|        T     T        T        T           T     T        T        T
|  |------6-------|  |------6-------|  |------6-------|  |------6-------|
|  S  S  S  S  S  S  S  S  S  S  S  S  S  S  S  S  S  S  S  S  S  S  S  S
|----------10-17-10h13-17-13p10----------------10-17-10h13-17-13p10-------|
|-10h13-17----------------------17-13p10h13-17----------------------17-13-|
|-------------------------------------------------------------------------|
|-------------------------------------------------------------------------|
|-------------------------------------------------------------------------|
|-------------------------------------------------------------------------|


                              PM
  +E        E        E        E        E        E        E        E
|-------------------------------------------------------------------------|
|-------------------------------------------------------------------------|
|-(2)-------2--------3-----------------0--------0--------2----------------|
|-(0)-------0--------0-----------------0--------0--------0----------------|
|-(1)-------------------------1-------------------------------------------|
|-----------------------------------------------------------------5-------|
|
|        T     T        T        T           T     T        T        T
|  |------6-------|  |------6-------|  |------6-------|  |------6-------|
|  S  S  S  S  S  S  S  S  S  S  S  S  S  S  S  S  S  S  S  S  S  S  S  S
|----------10-17-10h13-17-13p10----------------10-17-10h13-17-13p10-------|
|-10h13-17----------------------17-13p10h13-17----------------------17-13-|
|-------------------------------------------------------------------------|
|-------------------------------------------------------------------------|
|-------------------------------------------------------------------------|
|-------------------------------------------------------------------------|


                     PM                PM                PM
   Q                 E        E        E        E        E        E
|-----------------------------------------------------------------1-------|
|-----------------------------------------------------------------1-------|
|--2--------------------------3-----------------0-----------------3-------|
|--0--------------------------0-----------------0-------------------------|
|-------------------------------------------------------------------------|
|--------------------5-----------------5-----------------5----------------|
|
|        T     T        T        T           T     T        T        T
|  |------6-------|  |------6-------|  |------6-------|  |------6-------|
|  S  S  S  S  S  S  S  S  S  S  S  S  S  S  S  S  S  S  S  S  S  S  S  S
|----------13-20-13h17-20-17p13----------------13-20-13h17-20-17p13-------|
|-13h17-20----------------------20-17p13h17-20----------------------20-17-|
|-------------------------------------------------------------------------|
|-------------------------------------------------------------------------|
|-------------------------------------------------------------------------|
|-------------------------------------------------------------------------|


  +E        E        E        E        E        E        Q
|-(1)----------------1s=======3--------------------------------------------|
|-(1)----------------1s=======3--------6-----------------5\----------------|
|-(3)----------------3s=======5--------5-----------------5\----------------|
|-----------------------------------------------0--------------------------|
|-----------1--------------------------------------------------------------|
|--------------------------------------------------------------------------|
|
|        T     T        T        T        T        T         T        T
|  |------6-------|  |------6-------|  |------6-------|  |-------6-------|
|  S  S  S  S  S  S  S  S  S  S  S  S  S  S  S  S  S  S  S   S  S  S  S  S
|----------13-20-13h17-20-17p13-------17-20-17p13-------17--20-17p13-------|
|-13h17-20----------------------20-18-------------20-18--------------20-18-|
|--------------------------------------------------------------------------|
|--------------------------------------------------------------------------|
|--------------------------------------------------------------------------|
|--------------------------------------------------------------------------|


           PM     PM   PM
   Q       E   E  E E  E    E
|--------------------------------|
|--------------------------------|
|--2-----------3----0-------2----|
|--0-----------0----0-------0----|
|---------------------------1----|
|----------0------0----0---------|
|
|              ~~~
|                      |---3---|
|  Q      +E   Q.      E  E    E
|-20b22r=(20)-20------20-17---17-|
|--------------------------------|
|--------------------------------|
|--------------------------------|
|--------------------------------|
|--------------------------------|


                             PM
   +E            E     E     E     E     E     E     E
|---------------------------------------------------------|
|---------------------------------------------------------|
|--(2)-----------2-----3-----------0-----0-----2----------|
|--(0)-----------0-----0-----------0-----0-----0----------|
|--(1)-----------------------1----------------------------|
|----------------------------------------------------5----|
|
|  +T   T  T  T  S  S  S  S  S  S  S  S  S  S  S  S  S  S
|-(17)h18p17p15----15-------------------------------------|
|---------------18----18-17p15----15----------------------|
|------------------------------17----15h17-14h15----14----|
|------------------------------------------------------15-|
|------------------------------------------------17-------|
|---------------------------------------------------------|


            PM         PM         PM
   Q        E    E     E    E     E    E
|--------------------------------------1----|
|--------------------------------------1----|
|--2-------------3----------0----------3----|
|--0-------------0----------0---------------|
|-------------------------------------------|
|-----------5----------5----------5---------|
|
|  |--3--|  |---3---|  |---3---|  |---3---|
|  E  E  E  E  E    E  E  E    E  E  E    E
|-----------------------------17-18-20---18-|
|------------------17-18-20-----------------|
|----------17-19----------------------------|
|-17----17----------------------------------|
|----15-------------------------------------|
|-------------------------------------------|


  +E     E     E    E     E    E     Q
|-(1)----------1s===3-----------------------|
|-(1)----------1s===3-----6----------5\-----|
|-(3)----------3s===5-----5----------5\-----|
|--------3---------------------0------------|
|-------------------------------------------|
|-------------------------------------------|
|
|                                    ~~~~~~
|  |---3----|  |---3---|  |---3---|
|  E   E    E  E  E    E  E  E    E  Q
|-17---------------------17-18---20-22b24===|
|-----20---18-17-18---20--------------------|
|-------------------------------------------|
|-------------------------------------------|
|-------------------------------------------|
|-------------------------------------------|


 Breakdown
  Gtr II
            PM           PM|                     PM           PM---|                        PM
    E    E  E   E      E E   E       E           E      E     E     E     E     E     E     E
|--------------------------------------------|---------------------------------------------------|
|---9----9-----10-----10-------------7-------|----------9----------------10----10-----9----------|
|---9----9------9------9-------------7-------|----------9-----------------9-----9-----9----------|
|---0----0------0------0-------------0-------|----------0-----------------0-----0-----0----------|
|--------------------------------------------|---------------------------------------------------|
|-----------0------------0---0---------------|---0------------0-----0-----------------------0----|
|
|               ~~~~~~
|  +Q       E   Q.          +S    S  S  S       +S   S  S  S  S  S  S  S  S  S  S  S  S  S  S  S
|-(22)r\-------------------------------14b15r|=(14)p10-------------------------------------------|
|--------------13b15=======(13)r-15----------|---------13p10-------------------------------------|
|----------(0)----------------------14-------|---------------12p11----12p11----------------------|
|--------------------------------------------|---------------------12-------12p10----12p10-------|
|--------------------------------------------|------------------------------------12-------12p10-|
|--------------------------------------------|---------------------------------------------------|


       PM           PM|       PM   PM   ~~~~~~~~~
  E E  E  E      E  E E E     E  E E E  E  E  Q
|-------------------------|-----------------------|
|-9-9----10-----10------7-|------9---9S12-12-12\--|
|-9-9-----9------9------7-|------9---9S13-13-13\--|
|-0-0-----0------0------0-|------0----------------|
|-------------------------|-----------------------|
|------0------------0-0---|---0----0--------------|
|
| ~
| Q    E  E     +H           +W
|-------------------------|-----------------------|
|-------------------------|-----------------------|
|--------11b13r(11)-------|-(11)------------------|
|-----10--x---------------|-----------------------|
|-9-----------------------|-----------------------|
|-------------------------|-----------------------|


  Gtr II
         PM      PM|       PM   PM|         PM
    E  E E  E  E E E E     E  E E E  E  E E E
|----------------------|----------------------|
|---9--9---10-10-----7-|------9-----10-10-9---|
|---9--9----9--9-----7-|------9------9--9-9---|
|---0--0----0--0-----0-|------0------0--0-0---|
|----------------------|----------------------|
|--------0-------0-0---|---0----0-0---------0-|
|
|  +W                     +W
|----------------------|----------------------|
|----------------------|----------------------|
|-(11)-----------------|-(11)-----------------|
|----------------------|----------------------|
|----------------------|----------------------|
|----------------------|----------------------|


                  D.S.S. al Dbl. Coda
      PM      PM|     PM  PM|   PM
  E E E  E  E E E E   E E E E E E Q
|-------------------|---------7---7\---|
|-9-9---10-10-----7-|---9-----9---9\---|
|-9-9----9--9-----7-|---9-----9---9\---|
|-0-0----0--0-----0-|---0--------------|
|-------------------|------------------|
|-----0-------0-0---|-0---0-0---0------|
|
| W                   W
|-------------------|------------------|
|-------------------|------------------|
|-------------------|------------------|
|-------------------|------------------|
|-------------------|------------------|
|-------------------|------------------|


   Out-Chorus
    &&
       PM  PM  PM            PM             PM  PM  PM
    Q  E E E E E E   +E  E E E E E E E   Q  E E E E E E   +E  E E E E E Q
||-----------------|-------------------|--------------1-|-(1)---1s3---------|
||o----------------|-------------------|--------------1-|-(1)---1s3-6---5\--|
||--2----3---0---2-|-(2)-2-3---0-0-2---|-2----3---0---3-|-(3)---3s5-5---5\--|
||--0----0---0---0-|-(0)-0-0---0-0-0---|-0----0---0-----|-------------0-----|
||o--------------1-|-(1)-----1---------|----------------|-----1-------------|
||-----0---0---0---|-----------------5-|----5---5---5---|-------------------|


     PM  PM  PM            PM             PM  PM  PM
  Q  E E E E E E   +E  E E E E E E E   Q  E E E E E E   +E  E E E E E Q     3x
|----------------|-------------------|--------------1-|-(1)---1s3-----------||
|----------------|-------------------|--------------1-|-(1)---1s3-6---5\---o||
|-2----3---0---2-|-(2)-2-3---0-0-2---|-2----3---0---3-|-(3)---3s5-5---5\----||
|-0----0---0---0-|-(0)-0-0---0-0-0---|-0----0---0-----|-----3-------0-------||
|--------------1-|-(1)-----1---------|----------------|--------------------o||
|----0---0---0---|-----------------5-|----5---5---5---|---------------------||


Duration Legend
---------------
W - whole; H - half; Q - quarter; E - 8th; S - 16th; T - 32nd; X - 64th; a - acciaccatura
+ - note tied to previous; . - note dotted; .. - note double dotted
Uncapitalized letters represent notes that are staccato (1/2 duration)
Irregular groupings are notated above the duration line
Duration letters will always appear directly above the note/fret number it represents the
duration for.  Duration letters with no fret number below them represent rests.  Multi-
bar rests are notated in the form Wxn, where n is the number of bars to rest for.  Low
melody durations appear below the staff

Tablature Legend
----------------
 h   - hammer-on
 p   - pull-off
 b   - bend
 pb  - pre-bend
 r   - bend release (if no number after the r, then release immediately)
 /\  - slide into or out of (from/to "nowhere")
 s   - legato slide
 S   - shift slide
  - natural harmonic
[n]  - artificial harmonic
n(n) - tapped harmonic
 ~   - vibrato
 tr  - trill
 T   - tap
 TP  - trem. picking
 PM  - palm muting
\n/  - tremolo bar dip; n = amount to dip
 \n  - tremolo bar down
 n/  - tremolo bar up
/n\  - tremolo bar inverted dip
 =   - hold bend; also acts as connecting device for hammers/pulls
 <>  - volume swell (louder/softer)
 x   - on rhythm slash represents muted slash
 o   - on rhythm slash represents single note slash

Misc Legend
-----------
 |  - bar
||  - double bar
||o - repeat start
o|| - repeat end
*|  - double bar (ending)
 :  - bar (freetime)
 $  - Segno
 &  - Coda
Tempo markers -  = BPM(8/16=s8/s16), where s8 = swing 8ths, s16 = swing 16ths


***************************************************************************************
***************************************************************************************





Comments


Popular Edens Curse tabs & chords
After The Love Is Gone Tabs
Angels And Demons Tabs
Heaven Touch Me Tabs
Just Like Judas Tabs
Sail On Tabs
Trinity Tabs


Song lyrics



↑ Back to top | Tablatures and chords are parodies/interpretations of the original songs. You may use it for private study, scholarship, research or language learning purposes only
© 2014 AZChords.com Contact us | Privacy policy | DMCA | Add/correct tabs | Request tabs | Top 50 tabs