>
 >
Angels And Demons

Angels And Demons Guitar Tabs

Edens Curse - Angels And Demons chords, tabs, tablatures, lyrics

Guitar lessons | Add/correct | Request | Top 50 tabs Artists:  A B C D E F G H I J K L M N O P Q R S T U V W X Y Z 0-9

Angels And Demons Guitar Tabs – Edens Curse

CD, Sheet music, Poster

Do you like Angels And Demons? Share with your friends now
Tabs
#------------------------------------------------------------------------------##

                                ANGELS AND DEMONS
                           As recorded by Eden's Curse
                     (From the 2008 Album THE SECOND COMING)

Words and Music by Eden's Curse

Gtr I (D# G# C# F# A# D#) - 'Guitar 1'
Gtr II (D# G# C# F# A# D#) - 'Lead 1'
Gtr III (D# G# C# F# A# D#) - 'Lead 2'

  Q=160
 4/4
  Gtr I
                   PM  PM  PM        PM-------------
  Wx8          E E E E E E E E   +E  E E E E E E E
|------------|-----------------|-------------------|
|------------|-----------------|-------------------|
|------------|---5---4---2---4-|-(4)---------------|
|------------|---5---5---2---2-|-(2)---------------|
|------------|-0---0---0---0---|-----0-0-0-0-0-0-0-|
|------------|-----------------|-------------------|


 -|   PM  PM  PM         PM        ~~~
  E E E E E E E E   +Q   E E +Q    Q
|-----------------|----------------------|
|-----------------|----------------------|
|---5---4---2---5-|-(5)----4-(4)---------|
|---5---5---2---5-|-(5)----5-(5)--[2]----|
|-0---0---0---0---|------0---------------|
|-----------------|----------------------|


      PM  PM  PM        PM----------|       PM  PM  PM         PM        ~~~
  E E E E E E E E   +E  E E E E E E E   E E E E E E E E   +Q   E E +Q    Q
|-----------------|-------------------|-----------------|--------------------|
|-----------------|-------------------|-----------------|--------------------|
|---5---4---2---4-|-(4)---------------|---5---4---2---5-|-(5)----4-(4)-------|
|---5---5---2---2-|-(2)---------------|---5---5---2---5-|-(5)----5-(5)--[2]--|
|-0---0---0---0---|-----0-0-0-0-0-0-0-|-0---0---0---0---|------0-------------|
|-----------------|-------------------|-----------------|--------------------|


  Gtr I
      PM   PM   PM        PM---------------
  E E E E  E  E E E   +E  E E E  E  E E E
|-------------------|---------------------|
|-------------------|---------------------|
|---5---4-----2---4-|-(4)-----------------|
|---5---5-----2---2-|-(2)-----------------|
|-0---0----0----0---|-----0-0-0--0--0-0-0-|
|-------------------|---------------------|
|
| Gtr II
| ~                    ~~~
| H       +E  E E E   +H        +E  E E E
|-------------------|---------------------|
|-------------------|---------------------|
|-5-------(5)-------|---------------4-5S7-|
|-------------7-5-7-|-(7)-------(7)-------|
|-------------------|---------------------|
|-------------------|---------------------|
|
| Gtr III
| ~                    ~~~
| H       +E  E E E   +H        +E  E E E
|-------------------|---------------------|
|-5-------(5)-------|---------------3-5S6-|
|-------------5-4-5-|-(5)-------(5)-------|
|-------------------|---------------------|
|-------------------|---------------------|
|-------------------|---------------------|


 -|     PM   PM   PM          PM                    ~~~
   E  E E E  E  E E E   +Q    E  E   +Q             Q
|---------------------|---------------------------------|
|---------------------|---------------------------------|
|-----5---4-----2---5-|-(5)------4---(4)----------------|
|-----5---5-----2---5-|-(5)------5---(5)-----------[2]--|
|--0----0----0----0---|-------0-------------------------|
|---------------------|---------------------------------|
|
|  ~~~
| +H        +E  E E E   +Q   +E  S S  E  +S    +S  +Q
|---------------------|---------------------------------|
|---------------------|---------------5--(5)b6r(5)-(5)--|
|-(7)-------(7)-------|----------4-5--------------------|
|---------------7-5-7-|-(7)--(7)------------------------|
|---------------------|---------------------------------|
|---------------------|---------------------------------|
|
|  ~~~
| +H        +E  E E E   +Q   +E  S S  E  +S    +S  +Q
|---------------------|---------------3--(3)b5r(3)-(3)--|
|-(6)-------(6)-------|----------3-5--------------------|
|---------------5-4-5-|-(5)--(5)------------------------|
|---------------------|---------------------------------|
|---------------------|---------------------------------|
|---------------------|---------------------------------|


      PM   PM   PM        PM---------------
  E E E E  E  E E E   +E  E E E  E  E E E
|-------------------|---------------------|
|-------------------|---------------------|
|---5---4-----2---4-|-(4)-----------------|
|---5---5-----2---2-|-(2)-----------------|
|-0---0----0----0---|-----0-0-0--0--0-0-0-|
|-------------------|---------------------|
|
| ~                    ~~~
| H       +E  E E E   +H        +E  E E E
|-------------------|---------------------|
|-------------------|---------------------|
|-5-------(5)-------|---------------4-5S7-|
|-------------7-5-7-|-(7)-------(7)-------|
|-------------------|---------------------|
|-------------------|---------------------|
|
| ~                    ~~~
| H       +E  E E E   +H        +E  E E E
|-------------------|---------------------|
|-5-------(5)-------|---------------3-5S6-|
|-------------5-4-5-|-(5)-------(5)-------|
|-------------------|---------------------|
|-------------------|---------------------|
|-------------------|---------------------|


 -|     PM   PM   PM          PM             ~~~
   E  E E E  E  E E E    Q    E  E   +Q      Q
|---------------------|--------------------------------|
|---------------------|--------------------------------|
|-----5---4-----2---5-|--5-------4---(4)---------------|
|-----5---5-----2---5-|--5-------5---(5)----[2]--------|
|--0----0----0----0---|-------0------------------------|
|---------------------|--------------------------------|
|
|  ~~~
| +H        +E  E E E   +Q   +E  S S  Q.        +E
|---------------------|--------------------------------|
|---------------------|---------------5b6=======(5)r\--|
|-(7)-------(7)-------|----------4-5-------------------|
|---------------7-5-7-|-(7)--(7)-----------------------|
|---------------------|--------------------------------|
|---------------------|--------------------------------|
|
|  ~~~
| +H        +E  E E E   +Q   +E  S S  Q.        +E
|---------------------|---------------3b5=======(3)r\--|
|-(6)-------(6)-------|----------3-5-------------------|
|---------------5-4-5-|-(5)--(5)-----------------------|
|---------------------|--------------------------------|
|---------------------|--------------------------------|
|---------------------|--------------------------------|


   Verse 1
        PM  PM  PM        PM-------------
    E E E E E E E E   +E  E E E E E E E
||------------------|-------------------|
||o-----------------|-------------------|
||----5---4---2---4-|-(4)---------------|
||----5---5---2---2-|-(2)---------------|
||o-0---0---0---0---|-----0-0-0-0-0-0-0-|
||------------------|-------------------|


 -|   PM  PM  PM         PM        ~~~
  E E E E E E E E   +Q   E E +Q    Q     4x
|-----------------|----------------------||
|-----------------|---------------------o||
|---5---4---2---5-|-(5)----4-(4)---------||
|---5---5---2---5-|-(5)----5-(5)--[2]----||
|-0---0---0---0---|------0--------------o||
|-----------------|----------------------||


    PM|     PM~~~~~~   PM|     PM~~~~~~
    E E E E E E +Q     E E E E E E +Q
||-------------------|------------------|
||o------------------|------------------|
||-------------------|------------------|
||------5-4---2-(2)--|-----7-5---4-(4)--|
||o------------------|------------------|
||--0-0-----0--------|-0-0-----0--------|


  PM|     PM~~~~~~        PM----------|
  E E E E E E +E  E   +E  E E E E E E E
|-------------------|---------------------||
|-------------------|--------------------o||
|-----------------5-|-(5)-----------------||
|-----5-4---2-(2)-5-|-(5)-----------------||
|-----------------3-|-(3)-3-3-3-2-2-2-2--o||
|-0-0-----0---------|---------------------||


    PM|     PM~~~~~~   PM|     PM~~~~~~
    E E E E E E +Q     E E E E E E +Q
||-------------------|------------------|
||o------------------|------------------|
||------5-4---2-(2)--|-----7-5---4-(4)--|
||-------------------|------------------|
||o-0-0-----0--------|-0-0-----0--------|
||-------------------|------------------|


  PM|     PM~~~~~~   PM|     PM~~~~~~
  E E E E E E +Q     E E E E E E +Q
|------------------|--------------------||
|------------------|-------------------o||
|-----5-4---2-(2)--|-----7-5---4-(4)----||
|------------------|--------------------||
|-0-0-----0--------|-0-0-----0---------o||
|------------------|--------------------||


 Chorus 1
  PM----------------------|                         PM--------|
  E E E E E E E E   E E E E E E E E   E E H.        E S S E S S E E E E
|-----------------|---------0-1-0---|-----0-------|-------------0-1-0---|
|-----------------|---------------3-|---3-x-------|-------------------3-|
|-----------------|-----------------|-----2-------|---------------------|
|-----------------|-----------------|-----2-------|---------------------|
|-0-0-0-0-0-0-0-0-|-0-0-0-0---------|-------------|-0-0-0-0-0-0---------|
|-----------------|-----------------|-------------|---------------------|


                                      PM  PM    PM        PM  PM      PM
  E E H.        E E E E E E E E   +E  E E E E E E E   +E  E E E E E E E
|-------------|-0-----------0-3-|-(3)---3---3-3---2-|-(2)---2---2-2-2---|
|---3-1-------|---1-----1-3---3-|-(3)---3---3-3---3-|-(3)---3---3-3-3---|
|-------------|-----0-----------|-------------------|-------------------|
|-------------|-------3---------|-------------------|-----0---0-------0-|
|-------------|-----------------|-------------------|-------------------|
|-------------|-----------------|-----3---3-----3---|-------------------|


  PM----------------------|                         PM--------|
  E E E E E E E E   E E E E E E E E   E E H.        E S S E S S E E E E
|-----------------|---------0-1-0---|-----0-------|-------------0-1-0---|
|-----------------|---------------3-|---3-x-------|-------------------3-|
|-----------------|-----------------|-----2-------|---------------------|
|-----------------|-----------------|-----2-------|---------------------|
|-0-0-0-0-0-0-0-0-|-0-0-0-0---------|-------------|-0-0-0-0-0-0---------|
|-----------------|-----------------|-------------|---------------------|


                                    PM|   PM|   PM    PM|   PM|
  E E H.        E E E E E E E E   E E E E E E E E   E E E E E E E E
|-------------|-0-----------0---|-3-----3-----3---|-2-----2-----2-2-|
|---3-1-------|---1-----1-3---3-|-3-----3-----3---|-3-----3-----3-3-|
|-------------|-----0-----------|-----------------|-----------------|
|-------------|-------3---------|-----------------|---0-0---0-0-----|
|-------------|-----------------|-----------------|-----------------|
|-------------|-----------------|---3-3---3-3---3-|-----------------|


  PM----|   PM----|   PM|     PM----|   PM----|
  S S S S E S S S S E S S E   S S S S E S S S S E +Q
|---------------------------|--------------------------|
|---------------------------|--------------------------|
|---------5---------5-----5-|---------5---------5-(5)--|
|---------5---------5-----5-|---------5---------5-(5)--|
|-0-0-0-0---0-0-0-0---0-0---|-0-0-0-0---0-0-0-0--------|
|---------------------------|--------------------------|


      PM  PM  PM        PM--------------|   PM  PM  PM         PM        ~~~
  E E E E E E E E   +E  E E E E E E E   E E E E E E E E   +Q   E E +Q    Q
|-----------------|-------------------|-----------------|--------------------|
|-----------------|-------------------|-----------------|--------------------|
|---5---4---2---4-|-(4)---------------|---5---4---2---5-|-(5)----4-(4)-------|
|---5---5---2---2-|-(2)---------------|---5---5---2---5-|-(5)----5-(5)--[2]--|
|-0---0---0---0---|-----0-0-0-0-0-0-0-|-0---0---0---0---|------0-------------|
|-----------------|-------------------|-----------------|--------------------|


  Gtr I
      PM   PM   PM        PM---------------
  E E E E  E  E E E   +E  E E E  E  E E E
|-------------------|---------------------|
|-------------------|---------------------|
|---5---4-----2---4-|-(4)-----------------|
|---5---5-----2---2-|-(2)-----------------|
|-0---0----0----0---|-----0-0-0--0--0-0-0-|
|-------------------|---------------------|
|
| Gtr II
| ~                    ~~~
| H       +E  E E E   +H        +E  E E E
|-------------------|---------------------|
|-------------------|---------------------|
|-5-------(5)-------|---------------4-5S7-|
|-------------7-5-7-|-(7)-------(7)-------|
|-------------------|---------------------|
|-------------------|---------------------|
|
| Gtr III
| ~                    ~~~
| H       +E  E E E   +H        +E  E E E
|-------------------|---------------------|
|-5-------(5)-------|---------------3-5S6-|
|-------------5-4-5-|-(5)-------(5)-------|
|-------------------|---------------------|
|-------------------|---------------------|
|-------------------|---------------------|


 -|     PM   PM   PM          PM             ~~~
   E  E E E  E  E E E   +Q    E  E   +Q      Q
|---------------------|--------------------------------|
|---------------------|--------------------------------|
|-----5---4-----2---5-|-(5)------4---(4)---------------|
|-----5---5-----2---5-|-(5)------5---(5)----[2]--------|
|--0----0----0----0---|-------0------------------------|
|---------------------|--------------------------------|
|
|  ~~~
| +H        +E  E E E   +Q   +E  S S  Q.        +E
|---------------------|--------------------------------|
|---------------------|---------------5b6=======(5)r\--|
|-(7)-------(7)-------|----------4-5-------------------|
|---------------7-5-7-|-(7)--(7)-----------------------|
|---------------------|--------------------------------|
|---------------------|--------------------------------|
|
|  ~~~
| +H        +E  E E E   +Q   +E  S S  Q.        +E
|---------------------|---------------3b5=======(3)r\--|
|-(6)-------(6)-------|----------3-5-------------------|
|---------------5-4-5-|-(5)--(5)-----------------------|
|---------------------|--------------------------------|
|---------------------|--------------------------------|
|---------------------|--------------------------------|


   Verse 2
        PM  PM  PM        PM-------------
    E E E E E E E E   +E  E E E E E E E
||------------------|-------------------|
||o-----------------|-------------------|
||----5---4---2---4-|-(4)---------------|
||----5---5---2---2-|-(2)---------------|
||o-0---0---0---0---|-----0-0-0-0-0-0-0-|
||------------------|-------------------|


 -|   PM  PM  PM       PM        ~~~
  E E E E E E E E   Q  E E +Q    Q     4x
|-----------------|--------------------||
|-----------------|-------------------o||
|---5---4---2---5-|-5----4-(4)---------||
|---5---5---2---5-|-5----5-(5)--[2]----||
|-0---0---0---0---|----0--------------o||
|-----------------|--------------------||


    PM|     PM~~~~~~   PM|     PM~~~~~~
    E E E E E E +Q     E E E E E E +Q
||-------------------|------------------|
||o------------------|------------------|
||-------------------|------------------|
||------5-4---2-(2)--|-----7-5---4-(4)--|
||o------------------|------------------|
||--0-0-----0--------|-0-0-----0--------|


  PM|     PM~~~~~~        PM----------|
  E E E E E E +E  E   +E  E E E E E E E
|-------------------|---------------------||
|-------------------|--------------------o||
|-----------------5-|-(5)-----------------||
|-----5-4---2-(2)-5-|-(5)-----------------||
|-----------------3-|-(3)-3-3-3-2-2-2-2--o||
|-0-0-----0---------|---------------------||


    PM|     PM~~~~~~   PM|     PM~~~~~~
    E E E E E E +Q     E E E E E E +Q
||-------------------|------------------|
||o------------------|------------------|
||------5-4---2-(2)--|-----7-5---4-(4)--|
||-------------------|------------------|
||o-0-0-----0--------|-0-0-----0--------|
||-------------------|------------------|


  PM|     PM~~~~~~   PM|     PM~~~~~~
  E E E E E E +Q     E E E E E E +Q
|------------------|--------------------||
|------------------|-------------------o||
|-----5-4---2-(2)--|-----7-5---4-(4)----||
|------------------|--------------------||
|-0-0-----0--------|-0-0-----0---------o||
|------------------|--------------------||


 Chorus 2
  PM----------------------|                         PM--------|
  E E E E E E E E   E E E E E E E E   E E H.        E S S E S S E E E E
|-----------------|---------0-1-0---|-----0-------|-------------0-1-0---|
|-----------------|---------------3-|---3-x-------|-------------------3-|
|-----------------|-----------------|-----2-------|---------------------|
|-----------------|-----------------|-----2-------|---------------------|
|-0-0-0-0-0-0-0-0-|-0-0-0-0---------|-------------|-0-0-0-0-0-0---------|
|-----------------|-----------------|-------------|---------------------|


                                      PM  PM    PM        PM  PM      PM
  E E H.        E E E E E E E E   +E  E E E E E E E   +E  E E E E E E E
|-------------|-0-----------0-3-|-(3)---3---3-3---2-|-(2)---2---2-2-2---|
|---3-1-------|---1-----1-3---3-|-(3)---3---3-3---3-|-(3)---3---3-3-3---|
|-------------|-----0-----------|-------------------|-------------------|
|-------------|-------3---------|-------------------|-----0---0-------0-|
|-------------|-----------------|-------------------|-------------------|
|-------------|-----------------|-----3---3-----3---|-------------------|


  PM----------------------|                         PM--------|
  E E E E E E E E   E E E E E E E E   E E H.        E S S E S S E E E E
|-----------------|---------0-1-0---|-----0-------|-------------0-1-0---|
|-----------------|---------------3-|---3-x-------|-------------------3-|
|-----------------|-----------------|-----2-------|---------------------|
|-----------------|-----------------|-----2-------|---------------------|
|-0-0-0-0-0-0-0-0-|-0-0-0-0---------|-------------|-0-0-0-0-0-0---------|
|-----------------|-----------------|-------------|---------------------|


                                    PM|   PM|   PM    PM|   PM|
  E E H.        E E E E E E E E   E E E E E E E E   E E E E E E E E
|-------------|-0-----------0---|-3-----3-----3---|-2-----2-----2-2-|
|---3-1-------|---1-----1-3---3-|-3-----3-----3---|-3-----3-----3-3-|
|-------------|-----0-----------|-----------------|-----------------|
|-------------|-------3---------|-----------------|---0-0---0-0-----|
|-------------|-----------------|-----------------|-----------------|
|-------------|-----------------|---3-3---3-3---3-|-----------------|


 Bridge
  Gtr I
  E E E E   E E E   E    W
|---------------------|----------------------------------------------------------------------------|
|---------------------|----------------------------------------------------------------------------|
|-2-2-------2-------2-|----------------------------------------------------------------------------|
|-2-2-------2-------2-|----------------------------------------------------------------------------|
|-0-0-------0-------0-|----------------------------------------------------------------------------|
|-------3b4-----3b4---|----------------------------------------------------------------------------|
|
| Gtr II
|                        |--3--|  |--3--|                          |--3--|  |--3--| |--3--|  |-3-|
| W                      S  S  S  S  S  S  T  T  T  T  T  T  T  T  S  S  S  S  S  S S  S  S  S S S
|---------------------|-------------------17----------19----17----------12----12-------------------|
|---------------------|----------------17----17-15-------17----17-15-13----12----10-9-10-12-10-9-8-|
|---------------------|----------14h17-------------17----------------------------------------------|
|---------------------|-------14-------------------------------------------------------------------|
|---------------------|----15----------------------------------------------------------------------|
|---------------------|-17-------------------------------------------------------------------------|


  E   E     E     E       E  E E    E       +W
|-----------------------------------------|---------|
|-----------------------------------3-----|-(3)-----|
|-2---2-------------------2---------2-----|-(2)-----|
|-2---2-------------------2---------0-----|-(0)-----|
|-0---0-------------------0---------------|---------|
|-----------------3b4----------3b4--------|---------|
|
|                                            ~~~~
|     |-3-| |-3-| |--3--|
| S S S S S S S S S   S S Q.        E       +W
|-----------------------------------------|---------|
|-6-5-6-8-6-5-3-5-------------------------|---------|
|-----------------5---4-5----------[7]b9==|=(7)r----|
|-------------------------7\--------------|---------|
|-----------------------------------------|---------|
|-----------------------------------------|---------|


  Gtr I
  E E E E   E E E   E   H.       Q     Q.   Q.   Q    +E  Q.   Q   Q
|---------------------|--------------|--------------|-----------------|
|---------------------|--------------|--------------|-----------------|
|-2-2-------2-------2-|--------------|-2----4----5--|-(5)-7----9--10--|
|-2-2-------2-------2-|--------------|--------------|-----------------|
|-0-0-------0-------0-|--------------|-0----2----3--|-(3)-5----7---8--|
|-------3b4-----3b4---|---------10\--|--------------|-----------------|


 Solo
  Gtr I
     PM----|          PM|      PM------|            PM|      PM          PM
  E  E      E   E     E E  E   E         E    E     E E  E   E       E   E
|------------------------------------|-------------------------------------|
|------------------------------------|-------------------------------------|
|------------------------------------|-------------------------------------|
|-3-------------3----------3---------|--------3----------3-----------3-----|
|-3-------------3----------3---------|--------3----------3-----------3-----|
|-1--1------1---1-----1-1--1---1-----|---1----1-----1-1--1---1-------1---1-|
|
| Gtr II
|               ~~~~~~                        ~~~~~~~
| E +E     +E   Q.         E  +E        +E    Q.         E  +E      +E   E
|------------------------------------|-------------------------------------|
|-8-(8)b10r(8)-[8]b10----------------|------[10]b12------------------------|
|------------------------------------|-------------------------------------|
|-------------------------10-(10)b12r|=(10)-------------10-(10)b12r(10)----|
|------------------------------------|----------------------------------10-|
|------------------------------------|-------------------------------------|


         PM|       PM--|       PM----|       PM--|       PM      PM
   E     E   E   E E   E   E   E     E   E   E   E   E   E   E   E
|----------------------------------|-----------------------------------|
|----------------------------------|-----------------------------------|
|----------------------------------|-----------------------------------|
|--3-------------3---------3-------|-----3-----------3-------5---------|
|--3-------------3---------3-------|-----3-----------3-------5---------|
|--1-----1---1---1-1---1---1---1---|-1---1---1---1---1---1---3---3-----|
|
|                  PM----------------|
|  S  E.    +Q     S S S S S S S S   S S S S S S S S S S S S S S S S
|----------------------------------|---------------5-8-5-7-8-7-5-------|
|----------------------------------|---------5-6-8---------------8-5---|
|----------------------------------|---4-5-7---------------------------|
|------------------------------3-5-|-7---------------------------------|
|-10s12----(12)\---------3-5-7-----|-----------------------------------|
|------------------3-5-7-----------|-----------------------------------|


         PM-|      PM|      PM------|        PM|   PM       PM
  E      E    E  E E E  E   E         E   E  E E E E   E    E
|---------------------------------|-----------------------------|
|---------------------------------|-----------------------------|
|-2--------------2------2---------|-------2------2-----2--------|
|-2--------------2------2---------|-------2------2-----2--------|
|-0------0----0--0-0-0--0---0-----|---0---0--0-0-0-0---0----0---|
|---------------------------------|-----------------------------|
|
|        ~~~~~~~~                            ~~~~~~~~~~~~~
| S  S  +E   +H         E  +E        +E   E  H        +E   +E
|---------------------------------|---------12-------(12)-(12)\-|
|-8-10-(10)-(10)-------12-(12)b14r|=(12)-10---------------------|
|---------------------------------|-----------------------------|
|---------------------------------|-----------------------------|
|---------------------------------|-----------------------------|
|---------------------------------|-----------------------------|


      PM--|        PM---|         PM-----|         PM---|        PM  ~
  E   E   E    E   E    E    E    E       E    E   E    E   E    E   Q
|--------------------------------------|----------------------------------------|
|--------------------------------------|----------------------------------------|
|-5------------5-------------5---------|-------5------------5-------------------|
|-5------------5-------------5---------|-------5------------5-------------------|
|-0---0---0----0---0----0----0----0----|--0----0---0----0---0----0--------------|
|--------------------------------------|-----------------------------3----------|
|
| S S S S S S  S S S  S S S  S  S S  S    S S  S S S  S S S S  S S S S  S S S
|-8-7-5-------10-8-7--------12-10-8----|----------------------------------------|
|-------8-6-5--------10-8-6---------12-|-10-8-----------------------------------|
|--------------------------------------|------10-9-7----------------------------|
|--------------------------------------|-------------10-9-7-9-10-9-7-9-10-9-7---|
|--------------------------------------|----------------------------------------|
|--------------------------------------|----------------------------------------|


    PM|   PM|   PM--|   PM|   PM  PM    PM|   PM|   PM--|   PM|   PM  PM
  E E E E E E E E   E E E E E E E E   E E E E E E E E   E E E E E E E E
|-----------------|-----------------|-----------------|-----------------|
|-----------------|-----------------|-----------------|-----------------|
|-----------------|-----------------|-----------------|-----------------|
|-3-----3-----3---|---3-----3---3---|-3-----3-----3---|---3-----3---3---|
|-3-----3-----3---|---3-----3---3---|-3-----3-----3---|---3-----3---3---|
|-1-1-1-1-1-1-1-1-|-1-1-1-1-1-1-1-1-|-1-1-1-1-1-1-1-1-|-1-1-1-1-1-1-1-1-|
|
| W                 W                 W                 W
|-----------------|-----------------|-----------------|-----------------|
|-----------------|-----------------|-----------------|-----------------|
|-----------------|-----------------|-----------------|-----------------|
|-----------------|-----------------|-----------------|-----------------|
|-----------------|-----------------|-----------------|-----------------|
|-----------------|-----------------|-----------------|-----------------|


     PM--|        PM-|   PM--|     PM|        PM  PM
   E E   E    E   E  E E E    E  E E  E     E E E E
|--------------------------|------------------------|
|--------------------------|------------------------|
|--5----------5--------5---|-----5----------5---5---|
|--5----------5--------5---|-----5----------5---5---|
|--3-3---3----3---3--3-3-3-|--3--3-3--3-----3-3-3-3-|
|--------------------------|------------------------|
|
|                                           ~~
|  |---3----|
|  Q   Q    Q    +Q    E E    Q.      S  S  H
|--------------------------|------------------------|
|--------------------------|------------------------|
|-\7S==9S==12---(12)---9-7-|-14------14S16S14-------|
|--------------------------|------------------------|
|-\5S==7S==10---(10)---7-5-|-12------12S14S12-------|
|--------------------------|------------------------|


     PM---|       PM|         PM--|    PM--------|
   E E    E    E  E E    E    E    E E E E E E E E
|-------------------------------|--------------------|
|-------------------------------|--------------------|
|--7-----------7---------7------|----7---------------|
|--7-----------7---------7------|----7---------------|
|--5-5----5----5--5-5----5----5-|--5-5-5-5-5-5-5-5---|
|-------------------------------|--------------------|
|
|  |----3----|    |----3----|
|  Q    Q    Q    Q    Q    Q      W
|-------------------------------|-17-----------------|
|-15---17---20---19---17---15---|--------------------|
|-------------------------------|--------------------|
|-------------------------------|--------------------|
|-------------------------------|--------------------|
|-------------------------------|--------------------|


   Chorus 3-4
    Gtr I
    PM----------------------|                         PM--------|
    E E E E E E E E   E E E E E E E E   E E H.        E S S E S S E E E E
||------------------|---------0-1-0---|-----0-------|-------------0-1-0----|
||o-----------------|---------------3-|---3-x-------|-------------------3--|
||------------------|-----------------|-----2-------|----------------------|
||------------------|-----------------|-----2-------|----------------------|
||o-0-0-0-0-0-0-0-0-|-0-0-0-0---------|-------------|-0-0-0-0-0-0----------|
||------------------|-----------------|-------------|----------------------|


                                      PM  PM    PM        PM  PM      PM
  E E H.        E E E E E E E E   +E  E E E E E E E   +E  E E E E E E E
|-------------|-0-----------0-3-|-(3)---3---3-3---2-|-(2)---2---2-2-2---|
|---3-1-------|---1-----1-3---3-|-(3)---3---3-3---3-|-(3)---3---3-3-3---|
|-------------|-----0-----------|-------------------|-------------------|
|-------------|-------3---------|-------------------|-----0---0-------0-|
|-------------|-----------------|-------------------|-------------------|
|-------------|-----------------|-----3---3-----3---|-------------------|


  PM----------------------|                         PM--------|
  E E E E E E E E   E E E E E E E E   E E H.        E S S E S S E E E E
|-----------------|---------0-1-0---|-----0-------|-------------0-1-0---|
|-----------------|---------------3-|---3-x-------|-------------------3-|
|-----------------|-----------------|-----2-------|---------------------|
|-----------------|-----------------|-----2-------|---------------------|
|-0-0-0-0-0-0-0-0-|-0-0-0-0---------|-------------|-0-0-0-0-0-0---------|
|-----------------|-----------------|-------------|---------------------|


                                    PM|   PM|   PM    PM|   PM|
  E E H.        E E E E E E E E   E E E E E E E E   E E E E E E E E
|-------------|-0-----------0---|-3-----3-----3---|-2-----2-----2-2--||
|---3-1-------|---1-----1-3---3-|-3-----3-----3---|-3-----3-----3-3-o||
|-------------|-----0-----------|-----------------|------------------||
|-------------|-------3---------|-----------------|---0-0---0-0------||
|-------------|-----------------|-----------------|-----------------o||
|-------------|-----------------|---3-3---3-3---3-|------------------||


 Outro
  Gtr I
   PM-----------------------------------|
   E     E E E   E    E E  E     E  E E E E E   E    E
|----------------------------|------------0-1---0------|
|----------------------------|-----------------------3-|
|----------------------------|-------------------------|
|----------------------------|-------------------------|
|--0-----0-0-0---0----0-0--0-|---0--0-0-0--------------|
|----------------------------|-------------------------|
|
| Gtr II
|                                ~~~~
|  H            +E    E E  E    +H.            +E  a E
|----------------------------|-------------------------|
|-10b12========(10)r-10-8-10-|-(10)-----------(10)-5h6-|
|----------------------------|-------------------------|
|----------------------------|-------------------------|
|----------------------------|-------------------------|
|----------------------------|-------------------------|


                             PM---------------|
   E  E     +H.              E   S    S  E  S S E E  E  E
|-----0-----(0)-----------|---------------------0-1--0-----|
|-------------------------|-----------------------------3--|
|-------------------------|--------------------------------|
|-------------------------|--------------------------------|
|-------------------------|--0---0----0--0--0-0------------|
|-------------------------|--------------------------------|
|
|               ~~~~~~
|     |-3-|
| +E  S S S  E  E +Q.   E   +E  +E      +E  E   E E  E  E
|-------------------------|--------------------------------|
|-(6)-5-6-5--3------------|--------------------------------|
|---------------5-(5)---4-|-(4)-(4)b5r==(4)------------12--|
|-------------------------|-----------------5---7-9-10-----|
|-------------------------|--------------------------------|
|-------------------------|--------------------------------|


    E  E +H.                 E  E E E E E E E
|-------------------------|--0------------0-3-|
|------1-(1)--------------|-----1-----1-3---3-|
|-------------------------|-------0-----------|
|-------------------------|---------3---------|
|-------------------------|-------------------|
|-------------------------|-------------------|
|
|   ~~~~                     ~~~
|  +H          +E  E  E E   +W
|-------------------------|-------------------|
|-------------------------|-------------------|
|-(12)--------(12)--------|-------------------|
|------------------9-10S7-|-(7)---------------|
|-------------------------|-------------------|
|-------------------------|-------------------|


      PM  PM    PM        PM  PM      PM
  +E  E E E E E E E   +E  E E E E E E E
|-(3)---3---3-3---2-|-(2)---2---2-2-2---|
|-(3)---3---3-3---3-|-(3)---3---3-3-3---|
|-------------------|-------------------|
|-------------------|-----0---0-------0-|
|-------------------|-------------------|
|-----3---3-----3---|-------------------|
|
|  W                   W
|-------------------|-------------------|
|-------------------|-------------------|
|-------------------|-------------------|
|-------------------|-------------------|
|-------------------|-------------------|
|-------------------|-------------------|


   PM---------------------------------------------|
   E     E E E   E   E       E       E     E  E E E E E  E  E
|--------------------------------------|------------0-1--0------|
|--------------------------------------|--------------------3---|
|--------------------------------------|------------------------|
|--------------------------------------|------------------------|
|--0-----0-0-0---0---0-------0-------0-|---0--0-0-0-------------|
|--------------------------------------|------------------------|
|
|                                               ~
|  H            +E   E       E       E    +E  E H       +E  E
|-10b12========(10)-10pb12==10pb12==10r|=(10)-8-7-------(7)-7b8-|
|--------------------------------------|------------------------|
|--------------------------------------|------------------------|
|--------------------------------------|------------------------|
|--------------------------------------|------------------------|
|--------------------------------------|------------------------|


                              PM---------|
   E  E +H.                   E  S S E S S  E   E  E  E
|-----0-(0)----------------|----------------0---1--0----|
|--------------------------|--------------------------3-|
|--------------------------|----------------------------|
|--------------------------|----------------------------|
|--------------------------|--0--0-0-0-0-0--------------|
|--------------------------|----------------------------|
|
|                ~~~~                  ~
| +E  E  E   E  +Q.   E      +E  E   E E   +E   E  E  E
|-(7)-7--------------------|-------------------------15-|
|--------8--10-(10)--------|-------------------12-13----|
|---------------------9b10-|-(9)-9---7-9---(9)----------|
|--------------------------|----------------------------|
|--------------------------|----------------------------|
|--------------------------|----------------------------|


                                                          PM---|            PM---|            PM
    E  E +H.                    E  E E E E E E E    E     E     E     E     E     E     E     E
|---------------------------|---0------------0---|--3-----------------3-----------------3----------|
|------1-(1)----------------|------1-----1-3---3-|--3-----------------3-----------------3----------|
|---------------------------|--------0-----------|-------------------------------------------------|
|---------------------------|----------3---------|-------------------------------------------------|
|---------------------------|--------------------|-------------------------------------------------|
|---------------------------|--------------------|--------3-----3-----------3-----3-----------3----|
|
|   ~~~~                        ~~~~
|  +H          +E   E  E  E    +W                   S  S  S  S  S  S  S  S  S  S  S  S  S  S  S  S
|-(15)--------(15)----------|--------------------|----------------------------------------------12-|
|------------------12-13-10-|-(10)---------------|-------------------------------------12-13-15----|
|---------------------------|--------------------|----------------------------11-12-14-------------|
|---------------------------|--------------------|-------------------10-12-14----------------------|
|---------------------------|--------------------|----------10-12-14-------------------------------|
|---------------------------|--------------------|-10-12-14----------------------------------------|


         PM---|            PM---|
   E     E     E     E     E     E     E     E
|--2-----------------2-----------------2-----2-------*|
|--3-----------------3-----------------3-----3-------*|
|----------------------------------------------------*|
|--------0-----0-----------0-----0-------------------*|
|----------------------------------------------------*|
|----------------------------------------------------*|
|
|                                               ~~
|  S  S  S  S  S  S  S  S  S  S  S  S  S  S  S  S
|-15-14-12-------------------------------------------*|
|----------15-13-12----------------------------------*|
|-------------------14-12-11----------------11-14----*|
|----------------------------14-12-10-12-14----------*|
|----------------------------------------------------*|
|----------------------------------------------------*|


Duration Legend
---------------
W - whole; H - half; Q - quarter; E - 8th; S - 16th; T - 32nd; X - 64th; a - acciaccatura
+ - note tied to previous; . - note dotted; .. - note double dotted
Uncapitalized letters represent notes that are staccato (1/2 duration)
Irregular groupings are notated above the duration line
Duration letters will always appear directly above the note/fret number it represents the
duration for.  Duration letters with no fret number below them represent rests.  Multi-
bar rests are notated in the form Wxn, where n is the number of bars to rest for.  Low
melody durations appear below the staff

Tablature Legend
----------------
 h   - hammer-on
 p   - pull-off
 b   - bend
 pb  - pre-bend
 r   - bend release (if no number after the r, then release immediately)
 /\  - slide into or out of (from/to "nowhere")
 s   - legato slide
 S   - shift slide
  - natural harmonic
[n]  - artificial harmonic
n(n) - tapped harmonic
 ~   - vibrato
 tr  - trill
 T   - tap
 TP  - trem. picking
 PM  - palm muting
\n/  - tremolo bar dip; n = amount to dip
 \n  - tremolo bar down
 n/  - tremolo bar up
/n\  - tremolo bar inverted dip
 =   - hold bend; also acts as connecting device for hammers/pulls
 <>  - volume swell (louder/softer)
 x   - on rhythm slash represents muted slash
 o   - on rhythm slash represents single note slash

Misc Legend
-----------
 |  - bar
||  - double bar
||o - repeat start
o|| - repeat end
*|  - double bar (ending)
 :  - bar (freetime)
 $  - Segno
 &  - Coda
Tempo markers -  = BPM(8/16=s8/s16), where s8 = swing 8ths, s16 = swing 16ths


***************************************************************************************
***************************************************************************************





Comments


Popular Edens Curse tabs & chords
After The Love Is Gone Tabs
Fallen King Tabs
Heaven Touch Me Tabs
Just Like Judas Tabs
Sail On Tabs
Trinity Tabs


Song lyrics



↑ Back to top | Tablatures and chords are parodies/interpretations of the original songs. You may use it for private study, scholarship, research or language learning purposes only
© 2014 AZChords.com Contact us | Privacy policy | DMCA | Add/correct tabs | Request tabs | Top 50 tabs