>
 >
After The Love Is Gone

After The Love Is Gone Guitar Tabs

Edens Curse - After The Love Is Gone chords, tabs, tablatures, lyrics

Guitar lessons | Add/correct | Request | Top 50 tabs Artists:  A B C D E F G H I J K L M N O P Q R S T U V W X Y Z 0-9

After The Love Is Gone Guitar Tabs – Edens Curse

CD, Sheet music, Poster

Do you like After The Love Is Gone? Share with your friends now
Tabs
#------------------------------------------------------------------------------##

                             AFTER THE LOVE IS GONE
                           As recorded by Eden's Curse
                       (From the 2007 Album EDEN'S CURSE)


Gtr I (Eb Ab Db Gb Bb Eb) - 'Distortion 1'
Gtr II (Eb Ab Db Gb Bb Eb) - 'Distortion 2'

  Q=140
 4/4
  Gtr I                            Gtrs I, II
  W          W          W          H    E E  Q
|----------|----------|----------|---------------|
|----------|----------|----------|---------------|
|----------|----------|----------|---------------|
|----------|----------|----------|---------------|
|----------|----------|----------|---------------|
|----------|----------|----------|--------x-12\--|


       PM              PM  PM
  Q  E E E E E E   +E  E E E E E E E
|----------------|-------------------|
|----------------|-------------------|
|----7---7-7-7---|-------7---7-7-----|
|----5---4-4-5---|-------5---4-4-7---|
|----------------|-------------------|
|-0----0-------0-|-(0)-0---0-------0-|


      PM  PM              PM----|  ~~~~~~~
  +E  E E E E E E E   +E  E E E E  E  +E  E
|-------------------|-----------------------|
|-------------------|-----------------------|
|-------7---7-7-7---|-----------------------|
|-------5---4-4-5-5-|-(5)-------------------|
|-----------------3-|-(3)-0-3-0-3-----------|
|-(0)-0---0---------|-------------[3]-(3)-0-|


         PM              PM  PM
  +Q   E E E E E E   +E  E E E E E E E
|------------------|-------------------|
|------------------|-------------------|
|------7---7-7-7---|-------7---7-7-----|
|------5---4-4-5---|-------5---4-4-7---|
|------------------|-------------------|
|-(0)----0-------0-|-(0)-0---0-------0-|


      PM  PM              PM----|  ~~~~~~~
  +E  E E E E E E E   +E  E E E E  E  +E  E
|-------------------|-----------------------|
|-------------------|-----------------------|
|-------7---7-7-7---|-----------------------|
|-------5---4-4-5-5-|-(5)-------------------|
|-----------------3-|-(3)-0-3-0-3-----------|
|-(0)-0---0---------|-------------[3]-(3)-0-|


  Gtr I
      PM  PM ~~~         PM  PM~          PM  PM~            PM|     PM
  +E  E E E  Q   E E   E E E E Q  E E   E E E E Q  E E   +E  E E E E E Q
|--------------------|----------------|----------------|------------------|
|--------------------|----------------|----------------|------------------|
|--------------------|----------------|----------------|------------------|
|-------7----5-------|-----5---4--7-9-|-----7---5------|-------2-5-4-2----|
|----------------4-2-|------------5-7-|------------2-3-|-(3)-5---------5--|
|-(0)-0---0------2-0-|---0---0------0-|---0---0--------|------------------|
|
| Gtr II
|     PM  PM ~~~         PM  PM~          PM  PM~            PM|     PM
| +E  E E E  Q   E E   E E E E Q  E E   E E E E Q  E E   +E  E E E E E Q
|--------------------|----------------|----------------|------------------|
|--------------------|----------------|----------------|------------------|
|--------------------|----------------|----------------|------------------|
|-------7---[5]------|-----5---4--7-9-|-----7---5------|-------2-5-4-2----|
|----------------4-2-|------------5-7-|------------2-3-|-(3)-5---------5--|
|-(0)-0---0------2-0-|---0---0------0-|---0---0--------|------------------|


       PM~          PM  PM~          PM  PM~            PM|     PM
  Q  E E Q  E E   E E E E Q  E E   E E E E Q  E E   +E  E E E E E Q
|---------------|----------------|----------------|------------------|
|---------------|----------------|----------------|------------------|
|---------------|----------------|----------------|------------------|
|----7---5------|-----5---4--7-9-|-----7---5------|-------2-5-4-2----|
|-----------4-2-|------------5-7-|------------2-3-|-(3)-5---------5--|
|-0----0----2-0-|---0---0------0-|---0---0--------|------------------|
|
|      PM~          PM  PM~          PM  PM~            PM|     PM
| Q  E E Q  E E   E E E E Q  E E   E E E E Q  E E   +E  E E E E E Q
|---------------|----------------|----------------|------------------|
|---------------|----------------|----------------|------------------|
|----5---4------|-----4---2------|-----5---4------|---------4-2-0----|
|---------------|------------7-9-|--------------2-|-(2)-4-5-------4--|
|-----------4-2-|------------5-7-|------------5---|------------------|
|-0----0----2-0-|---0---0------0-|---0---0--------|------------------|


   Verse 1 and 2
    Gtrs I, II
         PM|   PM|     PM|   PM  PM           PM|   PM|     PM|   PM
    Q  E E E E E E   E E E E E E E E   +Q   E E E E E E   E E E E E E E E
||-----------------|-----------------|------------------|------------------|
||o----------------|-----------------|------------------|------------------|
||--5--5-----5-----|-4-----4---4---5-|-(5)--5-----5-----|-4-----4----------|
||--5--5-----5-----|-5-----5---5---5-|-(5)--5-----5-----|-5-----5---7-7-7--|
||o-3----3-3---3-3-|---3-3---3---3---|--------3-3---3-3-|---3-3---5-5-5-5--|
||-----------------|-----------------|------------------|------------------|


               PM      PM           PM|           PM      PM
  Q  E E E E E E   E E E E +H       E E E E E E E E   E E E E +H
|----------------|----------------|-----------------|----------------|
|----------------|----------------|-----------------|----------------|
|----7-7-7-7-----|----------------|-----7-7-7-7-----|----------------|
|----5-5-5-4-----|-7-----9-(9)----|-----5-5-5-4-----|-7-----9-(9)----|
|----------------|-5-----7-(7)----|-----------------|-5-----7-(7)----|
|-0------------0-|-----0----------|-0-0-----------0-|-----0----------|


       PM|           PM|   PM  PM           PM|   PM|     PM|   PM
  Q  E E E E E E   E E E E E E E E   +Q   E E E E E E   E E E E E E E E
|----------------|-----------------|------------------|-----------------|
|----------------|-----------------|------------------|-----------------|
|-5--5-----5-----|-4-----4---4---5-|-(5)--5-----5-----|-4-----4---------|
|-5--5-----5-----|-5-----5---5---5-|-(5)--5-----5-----|-5-----5---7-7-7-|
|-3----3-3---3-3-|---3-3---3---3---|--------3-3---3-3-|---3-3---5-5-5-5-|
|----------------|-----------------|------------------|-----------------|


               PM      PM           PM|           PM      PM
  Q  E E E E E E   E E E E +H       E E E E E E E E   E E E E +H
|----------------|----------------|-----------------|----------------|
|----------------|----------------|-----------------|----------------|
|----7-7-7-7-----|----------------|-----7-7-7-7-----|----------------|
|----5-5-5-4-----|-7-----9-(9)----|-----5-5-5-4-----|-7-----9-(9)----|
|----------------|-5-----7-(7)----|-----------------|-5-----7-(7)----|
|-0------------0-|-----0----------|-0-0-----------0-|-----0----------|


 Pre-Chorus 1 and 2
          PM|           PM|   PM  PM          PM|           PM|   PM  PM
  E E E E E E E E   E E E E E E E E   E E E E E E E E   E E E E E E E E
|-3-3-3-2-----3-3-|-3-2-----2---2---|-3-3-3-2-----3-3-|-3-2-----2---2---|
|-3-3-3-3-----3-3-|-3-3-----3---3---|-3-3-3-3-----3-3-|-3-3-----3---3---|
|---------2-2-----|-----2-2---2---2-|---------2-2-----|-----2-2---2---2-|
|---------0-0-----|-----0-0---0---0-|---------0-0-----|-----0-0---0---0-|
|-----------------|-----------------|-----------------|-----------------|
|-----------------|-----------------|-----------------|-----------------|


          PM|           PM|   PM  PM     PM------------|
  E E E E E E E E   E E E E E E E E   Q  E E E E E E   E E E E E E E E
|-3-3-3-2-----3-3-|-3-2-----2---2---|----------------|-----------------|
|-3-3-3-3-----3-3-|-3-3-----3---3---|----------------|---3---3---3-3-3-|
|---------2-2-----|-----2-2---2---2-|-4--------------|---2---2---2-2-2-|
|---------0-0-----|-----0-0---0---0-|-4--------------|---0---0---0-0-0-|
|-----------------|-----------------|-2--2-2-2-2-2-2-|-2---------------|
|-----------------|-----------------|----------------|-----------------|


 Chorus 1 and 2
       PM              PM  PM
  Q  E E E E E E   +E  E E E E E E E
|----------------|-------------------|
|----------------|-------------------|
|----7---7-7-7---|-------7---7-7-----|
|----5---4-4-5---|-------5---4-4-7---|
|----------------|-------------------|
|-0----0-------0-|-(0)-0---0-------0-|


      PM  PM              PM----|  ~~~~~~~
  +E  E E E E E E E   +E  E E E E  E  +E  E
|-------------------|-----------------------|
|-------------------|-----------------------|
|-------7---7-7-7---|-----------------------|
|-------5---4-4-5-5-|-(5)-------------------|
|-----------------3-|-(3)-0-3-0-3-----------|
|-(0)-0---0---------|-------------[3]-(3)-0-|


         PM              PM  PM
  +Q   E E E E E E   +E  E E E E E E E
|------------------|-------------------|
|------------------|-------------------|
|------7---7-7-7---|-------7---7-7-----|
|------5---4-4-5---|-------5---4-4-7---|
|------------------|-------------------|
|-(0)----0-------0-|-(0)-0---0-------0-|


      PM  PM              PM----|  ~~~~~~~
  +E  E E E E E E E   +E  E E E E  E  +E  E
|-------------------|-----------------------|
|-------------------|-----------------------|
|-------7---7-7-7---|-----------------------|
|-------5---4-4-5-5-|-(5)-------------------|
|-----------------3-|-(3)-0-3-0-3-----------|
|-(0)-0---0---------|-------------[3]-(3)-0-|


         PM              PM  PM
  +Q   E E E E E E   +E  E E E E E E E
|------------------|-------------------|
|------------------|-------------------|
|------7---7-7-7---|-------7---7-7-----|
|------5---4-4-5---|-------5---4-4-7---|
|------------------|-------------------|
|-(0)----0-------0-|-(0)-0---0-------0-|


      PM  PM              PM----|  ~~~~~~~
  +E  E E E E E E E   +E  E E E E  E  +E  E
|-------------------|-----------------------|
|-------------------|-----------------------|
|-------7---7-7-7---|-----------------------|
|-------5---4-4-5-5-|-(5)-------------------|
|-----------------3-|-(3)-0-3-0-3-----------|
|-(0)-0---0---------|-------------[3]-(3)-0-|


       PM              PM  PM
  Q  E E E E E E   +E  E E E E E E E
|----------------|-------------------|
|----------------|-------------------|
|----7---7-7-7---|-------7---7-7-----|
|----5---4-4-5---|-------5---4-4-7---|
|----------------|-------------------|
|-0----0-------0-|-(0)-0---0-------0-|


      PM  PM              PM----|  ~~~~~~~
  +E  E E E E E E E   +E  E E E E  E  +E  E
|-------------------|-----------------------|
|-------------------|-----------------------|
|-------7---7-7-7---|-----------------------|
|-------5---4-4-5-5-|-(5)-------------------|
|-----------------3-|-(3)-0-3-0-3-----------|
|-(0)-0---0---------|-------------[3]-(3)-0-|


  Gtr I
         PM~              PM~          PM~ PM~            PM|     PM
  +Q   E E Q  E E   E E E E Q  E E   E E E E Q  E E   +E  E E E E E Q
|-----------------|----------------|----------------|-------------------||
|-----------------|----------------|----------------|------------------o||
|-----------------|----------------|----------------|-------------------||
|------7---5------|-----5---4--7-9-|-----7---5------|-------2-5-4-2-----||
|-------------4-2-|------------5-7-|------------2-3-|-(3)-5---------5--o||
|-(0)----0----2-0-|---0---0------0-|---0---0--------|-------------------||
|
| Gtr II
|        PM~          PM  PM~          PM  PM~            PM|     PM
| +Q   E E Q  E E   E E E E Q  E E   E E E E Q  E E   +E  E E E E E Q
|-----------------|----------------|----------------|-------------------||
|-----------------|----------------|----------------|------------------o||
|------5---4------|-----4---2------|-----5---4------|---------4-2-0-----||
|-----------------|------------7-9-|--------------2-|-(2)-4-5-------4---||
|-------------4-2-|------------5-7-|------------5---|------------------o||
|-(0)----0----2-0-|---0---0------0-|---0---0--------|-------------------||


 Solo
  Gtrs I, II
          PM|           PM|   PM  PM          PM|           PM|   PM  PM
  E E E E E E E E   E E E E E E E E   E E E E E E E E   E E E E E E E E
|-3-3-3-2-----3-3-|-3-2-----2---2---|-3-3-3-2-----3-3-|-3-2-----2---2---|
|-3-3-3-3-----3-3-|-3-3-----3---3---|-3-3-3-3-----3-3-|-3-3-----3---3---|
|---------2-2-----|-----2-2---2---2-|---------2-2-----|-----2-2---2---2-|
|---------0-0-----|-----0-0---0---0-|---------0-0-----|-----0-0---0---0-|
|-----------------|-----------------|-----------------|-----------------|
|-----------------|-----------------|-----------------|-----------------|


          PM|           PM|   PM  PM          PM|           PM|   PM  PM
  E E E E E E E E   E E E E E E E E   E E E E E E E E   E E E E E E E E
|-3-3-3-2-----3-3-|-3-2-----2---2---|-3-3-3-2-----3-3-|-3-2-----2---2---|
|-3-3-3-3-----3-3-|-3-3-----3---3---|-3-3-3-3-----3-3-|-3-3-----3---3---|
|---------2-2-----|-----2-2---2---2-|---------2-2-----|-----2-2---2---2-|
|---------0-0-----|-----0-0---0---0-|---------0-0-----|-----0-0---0---0-|
|-----------------|-----------------|-----------------|-----------------|
|-----------------|-----------------|-----------------|-----------------|


          PM|           PM|   PM  PM          PM|           PM|   PM  PM
  E E E E E E E E   E E E E E E E E   E E E E E E E E   E E E E E E E E
|-3-3-3-2-----3-3-|-3-2-----2---2---|-3-3-3-2-----3-3-|-3-2-----2---2---|
|-3-3-3-3-----3-3-|-3-3-----3---3---|-3-3-3-3-----3-3-|-3-3-----3---3---|
|---------2-2-----|-----2-2---2---2-|---------2-2-----|-----2-2---2---2-|
|---------0-0-----|-----0-0---0---0-|---------0-0-----|-----0-0---0---0-|
|-----------------|-----------------|-----------------|-----------------|
|-----------------|-----------------|-----------------|-----------------|


          PM|           PM|   PM  PM     PM------------|
  E E E E E E E E   E E E E E E E E   Q  E E E E E E   E E E E E E E E
|-3-3-3-2-----3-3-|-3-2-----2---2---|----------------|-----------------|
|-3-3-3-3-----3-3-|-3-3-----3---3---|----------------|-----------------|
|---------2-2-----|-----2-2---2---2-|-4--------------|---7---7---7-7-7-|
|---------0-0-----|-----0-0---0---0-|-4--------------|---7---7---7-7-7-|
|-----------------|-----------------|-2--2-2-2-2-2-2-|-2-5---5---5-5-5-|
|-----------------|-----------------|----------------|-----------------|


 Chorus 3
       PM              PM  PM
  Q  E E E E E E   +E  E E E E E E E
|----------------|-------------------|
|----------------|-------------------|
|----7---7-7-7---|-------7---7-7-----|
|----5---4-4-5---|-------5---4-4-7---|
|----------------|-------------------|
|-0----0-------0-|-(0)-0---0-------0-|


      PM  PM              PM----|  ~~~~~~~
  +E  E E E E E E E   +E  E E E E  E  +E  E
|-------------------|-----------------------|
|-------------------|-----------------------|
|-------7---7-7-7---|-----------------------|
|-------5---4-4-5-5-|-(5)-------------------|
|-----------------3-|-(3)-0-3-0-3-----------|
|-(0)-0---0---------|-------------[3]-(3)-0-|


         PM              PM  PM
  +Q   E E E E E E   +E  E E E E E E E
|------------------|-------------------|
|------------------|-------------------|
|------7---7-7-7---|-------7---7-7-----|
|------5---4-4-5---|-------5---4-4-7---|
|------------------|-------------------|
|-(0)----0-------0-|-(0)-0---0-------0-|


      PM  PM              PM----|  ~~~~~~~
  +E  E E E E E E E   +E  E E E E  E  +E  E
|-------------------|-----------------------|
|-------------------|-----------------------|
|-------7---7-7-7---|-----------------------|
|-------5---4-4-5-5-|-(5)-------------------|
|-----------------3-|-(3)-0-3-0-3-----------|
|-(0)-0---0---------|-------------[3]-(3)-0-|


         PM              PM  PM
  +Q   E E E E E E   +E  E E E E E E E
|------------------|-------------------|
|------------------|-------------------|
|------7---7-7-7---|-------7---7-7-----|
|------5---4-4-5---|-------5---4-4-7---|
|------------------|-------------------|
|-(0)----0-------0-|-(0)-0---0-------0-|


      PM  PM              PM----|  ~~~~~~~
  +E  E E E E E E E   +E  E E E E  E  +E  E
|-------------------|-----------------------|
|-------------------|-----------------------|
|-------7---7-7-7---|-----------------------|
|-------5---4-4-5-5-|-(5)-------------------|
|-----------------3-|-(3)-0-3-0-3-----------|
|-(0)-0---0---------|-------------[3]-(3)-0-|


         PM              PM  PM
  +Q   E E E E E E   +E  E E E E E E E
|------------------|-------------------|
|------------------|-------------------|
|------7---7-7-7---|-------7---7-7-----|
|------5---4-4-5---|-------5---4-4-7---|
|------------------|-------------------|
|-(0)----0-------0-|-(0)-0---0-------0-|


      PM  PM              PM----|  ~~~~~~~
  +E  E E E E E E E   +E  E E E E  E  +E  E
|-------------------|-----------------------|
|-------------------|-----------------------|
|-------7---7-7-7---|-----------------------|
|-------5---4-4-5-5-|-(5)-------------------|
|-----------------3-|-(3)-0-3-0-3-----------|
|-(0)-0---0---------|-------------[3]-(3)-0-|


         PM              PM  PM
  +Q   E E E E E E   +E  E E E E E E E
|------------------|-------------------|
|------------------|-------------------|
|------7---7-7-7---|-------7---7-7-----|
|------5---4-4-5---|-------5---4-4-7---|
|------------------|-------------------|
|-(0)----0-------0-|-(0)-0---0-------0-|


      PM  PM              PM----|  ~~~~~~~
  +E  E E E E E E E   +E  E E E E  E  +E  E
|-------------------|-----------------------|
|-------------------|-----------------------|
|-------7---7-7-7---|-----------------------|
|-------5---4-4-5-5-|-(5)-------------------|
|-----------------3-|-(3)-0-3-0-3-----------|
|-(0)-0---0---------|-------------[3]-(3)-0-|


         PM              PM  PM
  +Q   E E E E E E   +E  E E E E E E E
|------------------|-------------------|
|------------------|-------------------|
|------7---7-7-7---|-------7---7-7-----|
|------5---4-4-5---|-------5---4-4-7---|
|------------------|-------------------|
|-(0)----0-------0-|-(0)-0---0-------0-|


      PM  PM              PM----|  ~~~~~~~
  +E  E E E E E E E   +E  E E E E  E  +E  E
|-------------------|-----------------------|
|-------------------|-----------------------|
|-------7---7-7-7---|-----------------------|
|-------5---4-4-5-5-|-(5)-------------------|
|-----------------3-|-(3)-0-3-0-3-----------|
|-(0)-0---0---------|-------------[3]-(3)-0-|


         PM              PM  PM
  +Q   E E E E E E   +E  E E E E E E E
|------------------|-------------------|
|------------------|-------------------|
|------7---7-7-7---|-------7---7-7-----|
|------5---4-4-5---|-------5---4-4-7---|
|------------------|-------------------|
|-(0)----0-------0-|-(0)-0---0-------0-|


      PM  PM              PM----|  ~~~~~~~
  +E  E E E E E E E   +E  E E E E  E  +E  E
|-------------------|-----------------------|
|-------------------|-----------------------|
|-------7---7-7-7---|-----------------------|
|-------5---4-4-5-5-|-(5)-------------------|
|-----------------3-|-(3)-0-3-0-3-----------|
|-(0)-0---0---------|-------------[3]-(3)-0-|


         PM              PM  PM
  +Q   E E E E E E   +E  E E E E E E E
|------------------|-------------------|
|------------------|-------------------|
|------7---7-7-7---|-------7---7-7-----|
|------5---4-4-5---|-------5---4-4-7---|
|------------------|-------------------|
|-(0)----0-------0-|-(0)-0---0-------0-|


      PM  PM              PM----|  ~~~~~~~
  +E  E E E E E E E   +E  E E E E  E  +E  E
|-------------------|-----------------------|
|-------------------|-----------------------|
|-------7---7-7-7---|-----------------------|
|-------5---4-4-5-5-|-(5)-------------------|
|-----------------3-|-(3)-0-3-0-3-----------|
|-(0)-0---0---------|-------------[3]-(3)-0-|


         PM~          PM  PM~          PM  PM~            PM|     PM
    Q  E E Q  E E   E E E E Q  E E   E E E E Q  E E   +E  E E E E E Q    8x
||----------------|----------------|----------------|--------------------||
||o---------------|----------------|----------------|-------------------o||
||----------------|----------------|----------------|--------------------||
||-----7---5------|-----5---4--7-9-|-----7---5------|-------2-5-4-2------||
||o-----------4-2-|------------5-7-|------------2-3-|-(3)-5---------5---o||
||--0----0----2-0-|---0---0------0-|---0---0--------|--------------------||


Duration Legend
---------------
W - whole; H - half; Q - quarter; E - 8th; S - 16th; T - 32nd; X - 64th; a - acciaccatura
+ - note tied to previous; . - note dotted; .. - note double dotted
Uncapitalized letters represent notes that are staccato (1/2 duration)
Irregular groupings are notated above the duration line
Duration letters will always appear directly above the note/fret number it represents the
duration for.  Duration letters with no fret number below them represent rests.  Multi-
bar rests are notated in the form Wxn, where n is the number of bars to rest for.  Low
melody durations appear below the staff

Tablature Legend
----------------
 h   - hammer-on
 p   - pull-off
 b   - bend
 pb  - pre-bend
 r   - bend release (if no number after the r, then release immediately)
 /\  - slide into or out of (from/to "nowhere")
 s   - legato slide
 S   - shift slide
  - natural harmonic
[n]  - artificial harmonic
n(n) - tapped harmonic
 ~   - vibrato
 tr  - trill
 T   - tap
 TP  - trem. picking
 PM  - palm muting
\n/  - tremolo bar dip; n = amount to dip
 \n  - tremolo bar down
 n/  - tremolo bar up
/n\  - tremolo bar inverted dip
 =   - hold bend; also acts as connecting device for hammers/pulls
 <>  - volume swell (louder/softer)
 x   - on rhythm slash represents muted slash
 o   - on rhythm slash represents single note slash

Misc Legend
-----------
 |  - bar
||  - double bar
||o - repeat start
o|| - repeat end
*|  - double bar (ending)
 :  - bar (freetime)
 $  - Segno
 &  - Coda
Tempo markers -  = BPM(8/16=s8/s16), where s8 = swing 8ths, s16 = swing 16ths


***************************************************************************************
***************************************************************************************





Comments


Popular Edens Curse tabs & chords
Angels And Demons Tabs
Fallen King Tabs
Heaven Touch Me Tabs
Just Like Judas Tabs
Sail On Tabs
Trinity Tabs


Song lyrics



↑ Back to top | Tablatures and chords are parodies/interpretations of the original songs. You may use it for private study, scholarship, research or language learning purposes only
© 2014 AZChords.com Contact us | Privacy policy | DMCA | Add/correct tabs | Request tabs | Top 50 tabs